12 Stones - My Life Chords & Tabs

 

My Life Chords & Tabs

12 Stones Chords & Tabs

Version: 1 Type: Bass Tab 0 ratings
1 star 2 stars 3 stars 4 stars 5 stars
comments

My Life Bass Tab

   
Band- 12 Stones
Song- My Life



Drop-D Tuning

Intro: (Heavy Part)
G---------|
D---------|
A---------|
D--3-3-*--|

Verse:
G-----------------|-----------------|
D-----------------|-----------------|
A-----8-*-----10-8|*---8-*-----10*8-|
D-00-0*-0707-0*---|00-0*-007087*-2*-|
[ Tab from: http://www.guitartabs.cc/tabs/0-9/12_stones/my_life_btab.html ]
Chorus: (Part 0ne)
G-----------------|---------------|-----------------|----------------|
D-----------------|---------------|-----------------|----------------|
A-----------------|-3-3---*-1---1-|-----------------|----------------|
D-0---*---0-3-3---|---------------|-0---*---0-3-3---|*-8-8-8-*-7-*-7-|

Chorus: (Part 2)
G---------------------------------------------------------------|
D---------------------------------------------------------------|
A----------------|-3-3---*-1---1-|0---0---0---0-0-|*------------|
D0---*---0-3-3---|---------------|----------------|-3-*-3-3-5-5-|
Comments