12 Stones - Let Go Chords & Tabs

 

Let Go Chords & Tabs

12 Stones Chords & Tabs

Version: 3 Type: Tab 0 ratings
1 star 2 stars 3 stars 4 stars 5 stars
comments

Let Go Tab

   
---------------------------------------------------------------------------
			     Let Go - 12 Stones
---------------------------------------------------------------------------

Tabbed by: fefs
Email: fesalviano@uol.com

Tuning: EADGBe

Intro:
e|--1------1---1/3---------0-----------0-0/1-----|-----------------------|
B|----------------------3--------1---1--------1--|-3------3--------------|
G|.---2----------------------------0-------------|---5-----5---5/7------.|
D|.-0---0----0-----------------------------------|-----3----3-----------.|
A|--------------------3-----------------------1--|-----------------------|
E|-----------------------------------------------|-----------------------|

Verse:

||: Dm | C9 | Bb9     :||

1st Solo
(Right After Intro Solo)
e|------------------------------------|
B|------------------------------------|
G|--10-12-10-12~-10-12-10-------------|
D|------------------------12~~-12~~---|
A|------------------------------------|
E|------------------------------------|

e|-------10-----10------------------------------------------|
B|-----10--10/13----13~~-~13-13-10-13-10--------------------|
G|--12~---------------------------------12/10--10-----------|
D|-------------------------------------------12--12-10-12---|
A|----------------------------------------------------------|
E|----------------------------------------------------------|



2nd Solo
(Right after "Again")
e|--------------------------------------------------------|
B|--------------------------------------------------------|
G|-------------------10-10-12-12~~--12~~/10---------------|
D|----10-10/12-----10----------------------12-------------|
A|--12-----------12---------------------------------------|
E|--------------------------------------------------------|
[ Tab from: http://www.guitartabs.cc/tabs/0-9/12_stones/let_go_tab_ver_3.html ]
3rd Solo
Right After "Believe In Me")
e|-------------------------------------------------------|
B|-------------------------------------------------------|
G|-------------------------------------------------------|
D|----------------10-10----------------------------------|
A|------8--8-10/12--------10/12/10-----------------------|
E|--8/10-10-----------------------13--10-----------------|

Chorus:

||: F C9 | Bb9   | F C9 | Bb9   :||

Verse

4th Solo

e|--------------------------------------------------------------------|
B|--------------------------------------------------------------------|
G|--------------------------------------------------------------------|
D|--12---10/12/10--10/12/10--12-10-------------10----10----9/10/9-----|
A|---------------------------------12----10/12----12----12--------10--|
E|------------------------------------10------------------------------|
e|--------------|
B|--------------|
G|--------------|
D|---10--10-----|
A|-12--12---...-|
E|--------------|


5th Solo
e|--------------------------------------------------------|
B|--------13-13~~~~~~~13----------------------------------|
G|--12/14----------------12-14-12-------------------------|
D|--------------------------------15-12----12-------------|
A|--------------------------------------15----------------|
E|--------------------------------------------------------|

Bridge:

|| C G Bb9 | Bb9 ||
|| Dm | C9 | C9 | Bb9 | G | Bb9 | F ||

Chorus

Intro

****************************************************************************
Chords:


    Dm     C9     Bb9
e|---1------0------1-----
B|---3------3------1-----
G|---2------0------3-----
D|---0------2------3-----
A|---X------3------1-----
E|---X------X------X-----

****************************************************************************


| /  slide up
| \  slide down
| h  hammer-on
| p  pull-off
| ~  vibrato
| +  harmonic
| x  Mute note
============================================================================
Comments