12 Stones - In Closing Chords & Tabs

 

In Closing Chords & Tabs

12 Stones Chords & Tabs

Version: 1 Type: Tab 0 ratings
1 star 2 stars 3 stars 4 stars 5 stars
comments

In Closing Tab

 Artist: 12 Stones
 Song: In Closing
 Album: Potter's Field
 Tuning: Drop C


 Intro/Verse
 this uses a ton of delay, so if you dont have a delay pedal, just repeat some of the notes.
 |-----------------------------------------------------------------------------------------------|
 |-----------------------------------------------------------------------------------------------|
 |---------------5---5---------------------------------------------------------------------------|
 |---------3-------------------------------------------------------------------------------------|
 |-5---5-5---3-----------------------------------------------------------------------------------|
 |-----------------------------------------------------------------------------------------------|

 Chorus
 |-----------------------------------------------------------------------------------------------|
 |-----------------------------------------------------------------------------------------------|
 |--------5---5-5-5-5-8--8--8-8-8-8---------5---5-5-5-5------------------------------------------|
 |-0--0-0-5---5-5-5-5-8--8--8-8-8-8--0--0-0-5---5-5-5-5-6--6--6-6-6-6----------------------------|
 |-0--0-0-3---3-3-3-3-6--6--6-6-6-6--0--0-0-3---3-3-3-3-6--6--6-6-6-6----------------------------|
 |-0--0-0----------------------------0--0-0-------------6--6--6-6-6-6----------------------------|
[ Tab from: http://www.guitartabs.cc/tabs/0-9/12_stones/in_closing_tab.html ]
 Interlude
 |-----------------------------------------------------------------------------------------------|
 |-----------------------------------------------------------------------------------------------|
 |-7------7------7------7------9------9------9------9------10------10-----10-----10--------------|
 |-----------------------------------------------------------------------------------------------|
 |-5--x-x-5--x-x-5--x-x-5--x-x-7--x-x-7--x-x-7--x-x-7--x-x-8--x-x--8--x-x-8--x-x-8--x-x----------|
 |-----------------------------------------------------------------------------------------------|

 |-----------------------------------------------------------------------------------------------|
 |-----------------------------------------------------------------------------------------------|
 |-12------12------12------12--------------------------------------------------------------------|
 |-----------------------------------------------------------------------------------------------|
 |-10--x-x-10--x-x-10--x-x-10-x-x----------------------------------------------------------------|
 |-----------------------------------------------------------------------------------------------|

 Outro
 |-----------------------------------------------------------------------------------------------|
 |-----------------------------------------------------------------------------------------------|
 |--------5---5-5-5-5----------------------------------------------------------------------------|
 |-0--0-0-5---5-5-5-5----------------------------------------------------------------------------|
 |-0--0-0-3---3-3-3-3----------------------------------------------------------------------------|
 |-0--0-0----------------------------------------------------------------------------------------|

thats basically it. the intro part takes a while to get the timing down, but once you 
it
it sounds perfect.
Comments