12 Stones - Crash Chords & Tabs

 

Crash Chords & Tabs

12 Stones Chords & Tabs

Version: 7 Type: Tab 0 ratings
1 star 2 stars 3 stars 4 stars 5 stars
comments

Crash Tab

   
artsit: 12 stones
number: Crash ( solo )
tabbed by:  jurre

This is a pretty quick solo, with a lot of quick bends.  Kinda
hard, but not too bad.  Enjoy.
[ Tab from: http://www.guitartabs.cc/tabs/0-9/12_stones/crash_tab_ver_7.html ]
b=bend (up or down)
br=bend and release
brp=bend, release, then pull-off
h=hammer-on
p=pull-off
/=slide (this can apply to a down-slide or up-slide)
c=choke bend (slight bend, only 1/2 step up)
------------------------------------------------------------------11c-|
----------------8-10-10b-10b--10brp8---8-----8-11-8-11/13-11-13-13----|
-----------8----8-10-10b-10b--10brp8---8---10-------------------------|
-8/10--8-10-10-----------------------10-------------------------------|
----------------------------------------------------------------------|
----------------------------------------------------------------------|
                                                      hold
----------------------11-----11-----11-13-13b-13b-13b-13b--13brp11--11-|
-13-13-11h13p11--11-13--13-13--13-13------------------------------13---|
---------------12------------------------------------------------------|
-----------------------------------------------------------------------|
-----------------------------------------------------------------------|
-----------------------------------------------------------------------|

------------------11---------------------------------------------------|
13-11h13p11--11-13--13--10brp8---8-10brp8--8---------------------------|
-----------12-----------10brp8---8-10brp8--8---------------------------|
------------------------------10---------10---10-8-----------------8---|
--------------------------------------------------10-8/6--6--6-8/10-10-|
---------------------------------------------------------8--8----------|
                                                This bend and release
                                                below is slower than
                                                the other ones
----------------------------------------------------------------------|
---------------------------11--13-11h13p11--11------10br-8-10-8-------|
--10brp8--8-10brp8--8-10/12--12-----------12--12/10-10br-8-10-8-------|
-8------10--------10---------------------------------------------10---|
----------------------------------------------------------------------|
----------------------------------------------------------------------|

Well, that's it.  Long solo, but if you get the bends down, then you
pretty much have it.  If you have any questions or comments, hit me
an e-mail to  skateboard_rules_1@hotmail.com
Comments