12 Stones - Crash Chords & Tabs

 

Crash Chords & Tabs

12 Stones Chords & Tabs

Version: 3 Type: Tab 0 ratings
1 star 2 stars 3 stars 4 stars 5 stars
comments

Crash Tab

Artist: 12 Stones
Song: Crash
Album: 12 Stones
Tabbed by: Mohamed Adel From Singapore

This is my second tab...hope u guys like it...

Tuning: Regular (EADgbe)

[Intro][0:00-0:13]
e|------------------------------------------------|(X2)
b|------------------------------------------------|
g|-5---5---5---8---8---8---7---7---7---3---2---3--|
D|------------------------------------------------|
A|--33--33--33--66--66--66--55--55--55--1---0---1-|
E|------------------------------------------------|
[ Tab from: http://www.guitartabs.cc/tabs/0-9/12_stones/crash_tab_ver_3.html ]
[Verse][0:14-0:50]
e|------------------------------------------------|(X6)
b|------------------------------------------------|
g|-5---5---5---8---8---8---7---7---7---3---2---3--|
D|------------------------------------------------|
A|--33--33--33--66--66--66--55--55--55--1---0---1-|
E|------------------------------------------------|

[Chorus] [0:51-1:16]
e|------------------------------------------------|
b|------------------------------------------------|
g|------------------------------------------------|
D|-5-5-5/8-8-8-8/7-7-7-7/3-3-3-3(X4)-3(X6)--------|
A|-3-3-3/6-6-6-6/5-5-5-5/1-1-1-1-----1------------|
E|------------------------------------------------|
                                     P
I couldn't figure out the solo and outro....So sorry...But I know that the song
is in C key...Thanx...
Comments