12 Stones - Crash Chords & Tabs

 

Crash Chords & Tabs

12 Stones Chords & Tabs

Version: 1 Type: Bass Tab 0 ratings
1 star 2 stars 3 stars 4 stars 5 stars
comments

Crash Bass Tab

This is an amazing song. 12 stones is an extraordinary band and they need some recognition.

Crash #1 of 12
Tuning  Drop C (drop and one step lower)

Intro (come in before Paul McCoy starts to sing @ 0:13)
F|------14--12--10--10-----------|
C|--12------------------10--12---| play this 4 times
G|-------------------------------|
C|-------------------------------|

Intro II (@ 0:39)
F|-----14--12--10--10------------|
C|---------------------10--12----| play this twice
G|-------------------------------|
C|--0----------------------------|

Chorus (@ 0:51-0:52)
F|-----------------------------------------------|
C|-----------------------------------------------|
G|-----------------------------------------------|
C|--0--0--0--10--10-10--10--3--3--3--5--5-5--3---|

F|-------------------------------------------------|
C|-------------------------------------------------|
G|-------------------------------------------------|
C|--0--0--0--10--10-10--10--3--3--3--5--5-5--5h7---|

F|-----------------------------------------------|
C|-----------------------------------------------|
G|-----------------------------------------------|
C|--0--0--0--10--10-10--10--3--3--3--5--5-5--3---|

F|-------------------------------------------------|
C|-------------------------------------------------|
G|-------------------------------------------------|
C|--0--0--0--10--10-10--10--3--3--3--5-5-5-5-5-5---|

Verse (@ 1:17)
F|-----------------------------------------------------|\
C|-----------------------------------------------------| \
G|-----------------------------------------------------|  \
C|--0-0-0-0-0-0-0-0--7-7-7-7-7-7-7-7-5-5-5-5-5-5-5-5-5-|   \
                                                            > play 6x
F|---------------------|                                   /
C|---------------------|                                  /
G|---------------------|                                 /
C|--3-3-3-3-3-3-3-3-3--|                                /

Chorus (@ 1:55-1:56)
F|-----------------------------------------------|
C|-----------------------------------------------|
G|-----------------------------------------------|
C|--0--0--0--10--10-10--10--3--3--3--5--5-5--3---|

F|-------------------------------------------------|
C|-------------------------------------------------|
G|-------------------------------------------------|
C|--0--0--0--10--10-10--10--3--3--3--5--5-5--5h7---|
[ Tab from: http://www.guitartabs.cc/tabs/0-9/12_stones/crash_btab.html ]
F|-----------------------------------------------|
C|-----------------------------------------------|
G|-----------------------------------------------|
C|--0--0--0--10--10-10--10--3--3--3--5--5-5--3---|

F|-------------------------------------------------|
C|-------------------------------------------------|
G|-------------------------------------------------|
C|--0--0--0--10--10-10--10--3--3--3--5-5-5-5-5-5---|

Bridge (@ 2:21)
F|---------------------------|
C|---------------------------| play 8x
G|------------------3--------|
C|--0-0--0-0--0-5-0---0-5-3--|

During the solo play the Chorus except for a few variations: (@ 2:46-47)
F|-----------------------------------------------|
C|-----------------------------------------------|
G|-----------------------------------------------|
C|--0--0--0--10--10-10--10--3--3--3--5--5-5--3---|

F|-------------------------------------------------|
C|-------------------------------------------------|
G|-------------------------------------------------|
C|--0--0--0--10--10-10--10--3--3--5-5-5-5-5-5------|

F|-----------------------------------------------|
C|-----------------------------------------------|
G|-----------------------------------------------|
C|--0--0--0--10--10-10--10--3--3--3--5--5-5--3---|

F|-----------------------------------------------------------|
C|-----------------------------------------------------------|
G|-----------------------------------------------------------|
C|--0--0--0--10--10-10--10--3--3--3--5-5-5-5-5-5-3-3-3-3-3-3-|

Chorus (@ 3:14)
F|-----------------------------------------------|
C|-----------------------------------------------|
G|-----------------------------------------------|
C|--0--0--0--10--10-10--10--3--3--3--5--5-5--3---|

F|-------------------------------------------------|
C|-------------------------------------------------|
G|-------------------------------------------------|
C|--0--0--0--10--10-10--10--3--3--3--5--5-5--5h7---|

F|-----------------------------------------------|
C|-----------------------------------------------|
G|-----------------------------------------------|
C|--0--0--0--10--10-10--10--3--3--3--5--5-5--3---|

F|-------------------------------------------------|
C|-------------------------------------------------|
G|-------------------------------------------------|
C|--0--0--0--10--10-10--10--3--3--3--5-5-5-5-5-5---|

great song. get the CD. it is amazing.
Comments