12 Stones - Broken Chords & Tabs

 

Broken Chords & Tabs

12 Stones Chords & Tabs

Version: 9 Type: Tab 0 ratings
1 star 2 stars 3 stars 4 stars 5 stars
comments

Broken Tab

Song: Broken
Artist: 12 Stones
Tabbed by: godpleaser#2

e-|-xxxx-|-        Intro
B-|-xxxx-|-        Verse 1
G-|-xxxx-|-        Chorus
D-|-xxxx-|-        Verse 1
A-|-xxxx-|-        Chorus
E-|-xxxx-|-        Verse 2
                   Solo
                   Chorus
Intro
e-|-----------------------------(r-t)-|-
B-|-----------------------------(e-w)-|-
G-|-77xxxx77-x10x--33xxxx33-x5x-(p-i)-|-
D-|-77xxxx77-x10x--33xxxx33-x5x-(e-c)-|-
A-|-55xxxx55-x8-x--11xxxx11-x3x-(a-e)-|-
e-|-----------------------------(t--)-|-

Verse 1
e-|-------------------------------------------------|-r-s-t-
B-|-------------------------------------------------|-e---i-
G-|------2------------------------------------------|-p-i-m-
D-|--0-3---3---0h2h3---0h2h3--------3-3-----0-3-3---|-e---e-
A-|---------------------------1-1h3-----1h3---------|-a-x-s-
e-|-------------------------------------------------|-t-----

Chorus
e-|------------------------------|-
B-|------------------------------|-
G-|--77xxxx77-x10x--33xxxx33-x5x-|-
D-|--77xxxx77-x10x--33xxxx33-x5x-|-
A-|--55xxxx55-x8-x--11xxxx11-x3x-|-
e-|------------------------------|-
[ Tab from: http://www.guitartabs.cc/tabs/0-9/12_stones/broken_tab_ver_9.html ]
Verse 2
e-|-----------------------------------------|-
B-|-----------------------------------------|-
G-|---7777/1010--1212---7777/1010--99-------|-
D-|---7777/1010-1212---7777/1010--99--(X4)-|-
A-|---5555/-8-8--1010---5555/-8-8--77-------|-
e-|-----------------------------------------|-

Solo P.M.- - - - - - - - - - - - - - - - - - - - - - - - - |
e-|--------------------------------------------------------|-
B-|--------------------------------------------------------|-
G-|----------------------------------------55-33-22-33-(2x)|-
D-|--00-33-22-33-55-33-22-00---00-33-22-33-----------------|-
A-|--------------------------------------------------------|-
e-|--------------------------------------------------------|-
     
e |--------------------------------------------------------|-
B |--------------------------------------------------------|-
G |----------------------------------------55-33-22-33-----|-
D |--00-33-22-33-55-33-22-00---00-33-22-33-----------------|-
A |--------------------------------------------------------|-
e |--------------------------------------------------------|-

e |--------------------------------------------------------|-
B |--------------------------------------------------------|-
G |----------------------------------------5555b-----------|-
D |--00-33-22-33-55-33-22-00---00-33-22-33-----------------|-
A |--------------------------------------------------------|-
e |--------------------------------------------------------|-


First 2 times palm muted, next 2 aren't. Last one ends 33b^.

Then play Verse 1, then play first half of verse1 and end on
e-|-----|-
B-|-----|-
G-|--7--|-
D-|--7--|-
A-|--5--|-
E-|-----|-
Comments