12 Stones - Broken Chords & Tabs

 

Broken Chords & Tabs

12 Stones Chords & Tabs

Version: 1 Type: Bass Tab 0 ratings
1 star 2 stars 3 stars 4 stars 5 stars
comments

Broken Bass Tab

   
tabbed by hensley
tuning: Dadg
great song easy to play

intro
g---------------------------------------------
d---------------------------------------------
a---------------------------------------------
D-xxxx0--0xxxx0--0-10-10--8--8xxxx8--8--10-10-


verse
g-----------------------------------------------------------
d----------------------------------------------------------8
a------------------------------------------------------8h10-
D-0-0-12-10-8-8---8-10-12-12--12-10-8-8--0-0-0 0h8-8h10-----
 the hammering part i know is wrong but i dont know it and thats how i play it

chorus
g------------------------------------
d------------------------------------
a------------------------------------
D-00-xxxx-00-10-10-8-8-xxxx-8-8-10-10
[ Tab from: http://www.guitartabs.cc/tabs/0-9/12_stones/broken_btab.html ]
interlude
g----------------------------------------------------
d----------------------------------------------------
a-----8-8-8-8-12-12-12-12-----8-8-8-8-7-7-7-7-5-5-5-5
D-0-0---------------------3-3------------------------
repeat as needed

during guitar solo
g-------------------
d-------------------
a-------------------
D--0~~~~~~~0~~~~~~~~

then bass comes in
g------------------------------------------------
d------------------------------------------------
a----8-8-7-7-8-8-10-10-8-8-7-7-5-5----8-8-7-7-8-8
D-0-0------------------------------88------------

g------------------
D-10-10-8-8-7-7-8-8
a------------------
D------------------

second time
g----------------------------------------------------------
d------------------------------------------------1010101010
a----8-8-7-7-8-8-10-10-8-8-7-7-5-5----8-8-7-7-8-8----------
D-0-0------------------------------88----------------------

go to chorus for rest of the song
Comments