1208 - Fall Apart Chords & Tabs

 

Fall Apart Chords & Tabs

1208 Chords & Tabs

Version: 2 Type: Tab 0 ratings
1 star 2 stars 3 stars 4 stars 5 stars
comments

Fall Apart Tab

1208..... fall apart

x=p.m.

1
e|-----------------------------|------------------------------|
B|-------------------------5-7-|------------------------------|
G|---7-6----7--6--4-7-6--7-----|---7-6----7--6--4-7-6--7-6----|  x2
D|-5------7--------------------|-5------7------------------7--|
A|-----------------------------|------------------------------|
E|-----------------------------|------------------------------|

2
e|----------------------------|
B|----------------------------|
G|----------------------------|
D|-5--5--3--3--5--5--7-5-4--- |
A|---5-----3-----5------------|
E|----------------------------|
[ Tab from: http://www.guitartabs.cc/tabs/0-9/1208/fall_apart_tab_ver_2.html ]
3
e|-----------------------------------|---------------------------|--------------------------|
B|-----------------------------------|---------------------------|--------------------------|
G|-4xxxxxx--2xxxxxx-7xxxxxx----------|-444--222--777------7------|--------------------------|  
D|-4xxxxxx--2xxxxxx-7xxxxxx--4xxxxxx-|-444--222--777--777-7-7--x2|-5xxxxxxxxxxxx-7xxxxxx777-| 
A|-2xxxxxx--0xxxxxx-5xxxxxx--4xxxxxx-|-222--000--555--777-5-7----|-5xxxxxxxxxxxx-7xxxxxx555-|
E|---------------------------2xxxxxx-|----------------555---5----|-3xxxxxxxxxxxx-5xxxxxx555-|

4
e|------------------------------|-------------------------------------|
B|------------------------------|-------------------------------------|
G|-4444444-2222222-777777777777-|-444444-222222-777777-----7----------|
D|-4444444-2222222--------------|-444444-222222-777777-777-7-7--------|
A|-2222222-0000000-555555555555-|-222222-000000-555555-777-5-7--------|
E|------------------------------|----------------------555---5--------|

parte lenta...

5
e|------------------------|
B|------------------------|
G|------------------------|
D|----7-6-----4-7-6-4-----|
A|--5-----7-5---------7---|
E|------------------------|



oskr.... coo_dark182x@hotmil.com
Comments