10 Years - Wasteland Chords & Tabs

 

Wasteland Chords & Tabs

10 Years Chords & Tabs

Version: 1 Type: Tab 1 rating
1 star 2 stars 3 stars 4 stars 5 stars
comments

Wasteland Tab

   
Tuning-D,A,D,G,B,e

[ Tab from: http://www.guitartabs.cc/tabs/0-9/10_years/wasteland_tab.html ]
e
B
G
D---0------1-----0---------
A-1----1-3-------0---------
D-1----1-3-------0---------
             "Change my
               attempt..." 
e--------------------------------------------------------------------------------
B--------------------------------------------------------------------------------
G--------------------------------------------------------------------------------
D-1-0---3-1-0-----5-5-5-5-5-5-5-5-5-5-5-5-8-8-8-8-5-5-5-5-5-5-5-5-5-5-5-5-8-8-8-8
A-1-----3-1-------5-5-5-5-5-5-5-5-5-5-5-5-8-8-8-8-5-5-5-5-5-5-5-5-5-5-5-5-8-8-8-8
D-1-----3-1-------5-5-5-5-5-5-5-5-5-5-5-5-8-8-8-8-5-5-5-5-5-5-5-5-5-5-5-5-8-8-8-8
                 verse(palm mute)
e----------------------------------------------------------------
B----------------------------------------------------------------
G----------------------------------------------------------------
D-1-1-1-1-1-1-1-1-1-1-1-1-1-1-1-1-0-0-0-0-0-0-0-0-0-0-0-0-3-3-3-0
A-1-1-1-1-1-1-1-1-1-1-1-1-1-1-1-1-0-0-0-0-0-0-0-0-0-0-0-0-3-3-3-0
D-1-1-1-1-1-1-1-1-1-1-1-1-1-1-1-1-0-0-0-0-0-0-0-0-0-0-0-0-3-3-3-0
                                                            repeat

e-----------------------------------------------------------------------
B-----------------------------------------------------------------------
G-----------------------------------------------------------------------
D-------------------------------5-5-5-5-5-5h7-7-7-7h8-8-8--1-0-----3-1-0
A-5-5-5-5-5-5-5-5-5-5-5-5-5-5-5-5-5-5-5-5-5-5-5-5-5-5-5-5--1-------3-1--
D-5-5-5-5-5-5-5-5-5-5-5-5-5-5-5-5-5-5-5-5-5-5-5-5-5-5-5-5--1-------3-1--
 Chorus                                                               repeat

Bridge
e---------------------------------------------
B---------------------------------------------
G---------------------------------------------
D-5-5----------5-5-----------5-5-5-5-5p3-3-3-3
A-5-5----------5-5-----------5-5-5-5-5p3-3-3-3
D-5-5----------5-5-----------5-5-5-5-5p3-3-3-3
                                         repeat
After a few measures of rest with just vocals, play the intro again. After that, play the chorus
a few times. all the notes and chords are there, so listen to the song to get them in the right place.
well, there you have it 
FYI, this is my first tab, so if you find any problems with it put in on the comments. i'll eventually get a bass tab done for this song,too.
Comments