10 Years - Wasteland Chords & Tabs

 

Wasteland Chords & Tabs

10 Years Chords & Tabs

Version: 2 Type: Bass Tab

Wasteland Bass Tab

   
Wasteland - 10 Years

5-String Bass Tab:

Tabbed By: Bakay
Any Comments: bakay69@ptdprolog.net

Timing: Each dash (-) equals 1/16th note

Intro (after guitar and vocals Intro w/o bass)
   D             B  E           B
G:|----------------|----------------|
D:|----------------|----------------|
A:|--------------2-|------------2-2-|
E:|----------------|0---------------|
B:|3---------------|----------------|

Verses 1 and 2 (Verse 1 = 3-1/2, Verse 2 = 1-1/2)
   F#  A  G# E      F#  A  G# E      D   G#  A        C#  B G#  E
G:|----2-2-1-------|----2-2-1-------|----1-1-2-2-2-2-|------1-1-------|
D:|4-4-------2-2-2-|4-4-------2-2-2-|0-0-------------|----------2-2-2-|
A:|----------------|----------------|----------------|4-4-2-----------|
E:|----------------|----------------|----------------|----------------|
B:|----------------|----------------|----------------|----------------|

Pre-Chorus
   D             B  E           B
G:|----------------|----------------|
D:|----------------|----------------|
A:|--------------2-|------------2-2-|
E:|----------------|0---------------|
B:|3---------------|----------------|
[ Tab from: http://www.guitartabs.cc/tabs/0-9/10_years/wasteland_btab_ver_2.html ]
Chorus
   F#      F#       F#      F#       D             B  E           B
G:|----------------|----------------|----------------|----------------|
D:|----------------|----------------|----------------|----------------|
A:|----------------|----------------|--------------2-|------------2-2-|
E:|2-------2-------|2-------2-------|----------------|0---------------|
B:|----------------|----------------|3---------------|----------------|

Break
   F#      F#       F#      E
G:|----------------|----------------|
D:|----------------|----------------|
A:|----------------|9999999977777777|
E:|2-2-R-R-2-2-R-R-|----------------|
B:|----------------|----------------|

End part (Similar to Chorus w/ F# Ending)
   F#               F#               D             B  E           B     F#
G:|----------------|----------------|----------------|----------------|----------|
D:|----------------|----------------|----------------|----------------|----------|
A:|----------------|----------------|--------------2-|------------2-2-|----------|
E:|2-2-2-2-2-2-2-2-|2-2-2-2-2-2-2-2-|----------------|0---------------|-2-2-R----|
B:|----------------|----------------|3---------------|----------------|----------|

The song is played in this order:
Intro w/o Bass (x 1)
Intro (x 1)
Verse(x 3-1/2)
Pre-Chorus(x 1)
Chorus(x 2)
Verse(x 1-1/2)
Pre-Chorus(x 1)
Chorus(x 2)
Break(x 4)
Intro w/o Bass (x 3)
Pre-Chorus(x 1)
Chorus(x 1)
End Part (x 1)