10 Years - Wasteland Acoustic Chords & Tabs

 

Wasteland Acoustic Chords & Tabs

10 Years Chords & Tabs

Version: 1 Type: Tab 0 ratings
1 star 2 stars 3 stars 4 stars 5 stars
comments

Wasteland Acoustic Tab

Song: Wasteland
Band: 10 Years
Album: The Autumn Effect
-------------------------------------------------------------------------------
Tabbed by:Eric Hines
Email:hineem10@uwgb.edu

This is their live acoustic version, which can be seen on their homepage.
Check out the whole cd if you haven't already.


Tuning: Drop D then a 1/2 step down
                                     Intro
e|------------------------------------------------------|
B|---------3------------------3---------------3---------|
G|-----2-----2---2---------2-----2--2-------2--2---2----|
D|---0---0-----0--------0---0-----0-------0------0------|repeat 6x then
A|-1------------------3-----------------0---------------|
D|--------------------------------------0---------------|

e|------------------------------------------------------|
B|--------3------------3----------3---------6-----------|
G|-----2---2-2-----2---2----------3---------7-----------|
D|---0--0---0-----0----0--------1-1---1-/-3-3-----------|
A|-1-------------3-----3--------1-----1-/-3-3-----------|
D|------------------------------1-----1-/-3-3-----------|
[ Tab from: http://www.guitartabs.cc/tabs/0-9/10_years/wasteland_acoustic_tab.html ]
                            Chorus "Change my attempt, good intentions"
e|----------------------------------------------------------|
B|-8--------3---------6-------------------------------------|
G|-7--------3---------7-------------------------------------|
D|-5--------1---------3-------------------------------------|
A|-5--------1---------3-------------------------------------|
D|-5--------1---------3-------------------------------------|

          Verse (You should be able to figure out the strumming pattern)
e|----------------------------------------------------------------|
B|-----------------------------------------3---6------------------|
G|-------------------------------3--2------2---7------------------|
D|--5--8--7--5---5--8--7--5---1--1--1--3---0---3------------------|
A|--5--5--5--8---5--5--5--8---1--1--1--1---0---3------------------|
D|--5--5--5--5---5--5--5--5---1--1--1--1---0---3------------------|

                Bridge  (Can also play like chorus)
e|----------------------------------------------------------------------|
B|---8--8--------------8--8---------------------------------------------|
G|---7--7--------------7--7----------------12-------10------------------|
D|---5--5-x-x-x-x-x-x--5--5-x-x-x-x-x-x--------(6x)-----(6x)------------|
A|---5--5-x-x-x-x-x-x--5--5-x-x-x-x-x-x----10--------8------------------|
D|---5--5-x-x-x-x-x-x--5--5-x-x-x-x-x-x---------------------------------|
Comments