10 Years - Half Life Chords & Tabs

 

Half Life Chords & Tabs

10 Years Chords & Tabs

Version: 1 Type: Tab 0 ratings
1 star 2 stars 3 stars 4 stars 5 stars
comments

Half Life Tab

   
----------------------------------------------------------------------------
			     Half LIFE - 10 YEARS
----------------------------------------------------------------------------
Tabbed by: Naterack

Tuning: Drop D(DADGbe)

Intro
e|---------22^--------------------------------------------------------------|
B|--15^---------15^---------------------------------------------------------|
G|-----------------------12-15---14-------12-15---14------------------------|
D|--------------------12---------------12-----------------------------------|
A|--------------------------------------------------------------------------|
D|0--------------------3----------------0-----------------------------------|
CHORUS
e|--------------------------------------------------------------------------|
B|--------------------------------------------------------------------------|
G|--------------------------------------------------------------------------|
D|---0-0--3---0-0--3---0-0--3-0-5-6-0-0--3---0-0--3---0-0--3-0-5-0-6-5-3-0--|
A|---0-0--3---0-0--3---0-0--3-0-5-6-0-0--3---0-0--3---0-0--3-0-5-0-6-5-3-0--|
D|---0-0--3---0-0--3---0-0--3-0-5-6-0-0--3---0-0--3---0-0--3-0-5-0-6-5-3-0--|
Verse
e|--------------------------------------------------------------------------|
B|-----------------------------------15-------------------------------------|
G|-----12-15---14-------12-15---14------15--12------------------------------|
D|--12---------------12-----------------------------------------------------|
A|--------------------------------------------------------------------------|
D|---3----------0-----3----------0------------------------------------------|

e|--------------------------------------------------------------------------|
B|--------------------------------------------------------------------------|
G|--------------------------------------------------------------------------|
D|---0-0--3---0-0--3---0-0--3-0-5-6-0-0--3---0-0--3---0-0--3-0-5-0-6-5-3-0--|
A|---0-0--3---0-0--3---0-0--3-0-5-6-0-0--3---0-0--3---0-0--3-0-5-0-6-5-3-0--|
D|---0-0--3---0-0--3---0-0--3-0-5-6-0-0--3---0-0--3---0-0--3-0-5-0-6-5-3-0--|

e|--------------------------------------------------------------------------|
B|-----------------------------------15-------------------------------------|
G|-----12-15---14-------12-15---14------15--12------------------------------|
D|--12---------------12-----------------------------------------------------|
A|--------------------------------------------------------------------------|
D|---3----------0-----3----------0------------------------------------------|
[ Tab from: http://www.guitartabs.cc/tabs/0-9/10_years/half_life_tab.html ]
e|--------------------------------------------------------------------------|
B|--------------------------------------------------------------------------|
G|--------------------------------------------------------------------------|
D|---0-0--3---0-0--3---0-0--3-0-5-6-0-0--3---0-0--3---0-0--3-0-5-0-6-5-3-0--|
A|---0-0--3---0-0--3---0-0--3-0-5-6-0-0--3---0-0--3---0-0--3-0-5-0-6-5-3-0--|
D|---0-0--3---0-0--3---0-0--3-0-5-6-0-0--3---0-0--3---0-0--3-0-5-0-6-5-3-0--|

e|--------------------------------------------------------------------------|
B|--------------------------------------------------------------------------|
G|-----12---15-----12---14------12---15------12---14------------------------|
D|--12----------12-----------12------------12-------------------------------|
A|--------------------------------------------------------------------------|
D|--------------------------------------------------------------------------|

e|--------------------------------------------------------------------------|
B|--------------------------------------------------------------------------|
G|--------------------------------------------------------------------------|
D|---3-3--3-3--3-3--3-3----0-0--0-0--0-0--0-0-------------------------------|
A|---3-3--3-3--3-3--3-3----0-0--0-0--0-0--0-0-------------------------------|
E|---3-3--3-3--3-3--3-3----0-0--0-0--0-0--0-0-------------------------------|
pm...............................................

e|--------------------------------------------------------------------------|
B|--------------------------------------------------------------------------|
G|---------------15-15-15--------------14-14-14-----------------------------|
D|--12-12-12-12--12-12-12-12-12-12-12--12-12-12-----------------------------|
A|--------------------------------------------------------------------------|
D|--------------------------------------------------------------------------|

e|--------------------------------------------------------------------------|
B|--------------------------------------------------------------------------|
G|--------------------------------------------------------------------------|
D|---0-0--3---0-0--3---0-0--3-0-5-6-0-0--3---0-0--3---0-0--3-0-5-0-6-5-3-0--|
A|---0-0--3---0-0--3---0-0--3-0-5-6-0-0--3---0-0--3---0-0--3-0-5-0-6-5-3-0--|
D|---0-0--3---0-0--3---0-0--3-0-5-6-0-0--3---0-0--3---0-0--3-0-5-0-6-5-3-0--|

e|--------------------------------------------------------------------------|
B|--------------------------------------------------------------------------|
G|---------------15-15-15--------------14-14-14-----------------------------|
D|--12-12-12-12--12-12-12-12-12-12-12--12-12-12-----------------------------|
A|--------------------------------------------------------------------------|
D|--------------------------------------------------------------------------|


| /  slide up
| \  slide down
| h  hammer-on
| p  pull-off
| ~  vibrato
| +  harmonic
| x  Mute note
============================================================================
Comments