10 13 - Katie Chords & Tabs

 

Katie Chords & Tabs

10 13 Chords & Tabs

Version: 2 Type: Tab 0 ratings
1 star 2 stars 3 stars 4 stars 5 stars
comments

Katie Tab

Intro

E|-------2-------------3------------0-----|
B|-----3---3---------3---3--------3---3---|
G|---2-------2-----2-------2----2-------2-|
D|-0-------------0------------0-----------| reapeat x2
A|----------------------------------------|
E|----------------------------------------|

E|-------2-------------3------------0------0--|
B|-----3---3---------3---3--------3---3----3--|
G|---2-------2-----2-------2----2-------2--2--|
D|-0-------------0------------0------------0--|
A|--------------------------------------------|
E|--------------------------------------------|


Verse

D| x x 0 2 3 2   Seven x's
[ Tab from: http://www.guitartabs.cc/tabs/0-9/10_13/katie_tab_ver_2.html ]
Dsus4| x x 0 2 3 3   seven x's  Reapeat 2x

Asus4| x 0 0 2 3 0    Seven x's

B|--3----2----0--

Chorus

Dm| x 0 0 2 3 1
		Reapeat 3x
Am| x 0 2 2 1 0

Slowly play this once

E|-------2----------------|
B|-----3---3--------------|
G|---2-------2--2---------|
D|-0----------------------|
A|------------------------|
E|------------------------|

Play verse over again and end in this slow version of intro|

E|-------2-------------3------------0------2--|
B|-----3---3---------3---3--------3---3----3--|
G|---2-------2-----2-------2----2-------2--2--|
D|-0-------------0------------0------------0--|
A|--------------------------------------------|
E|--------------------------------------------|
Comments