Enter part or all of an artist or song's name.
 

stooge27's Profile | Contributions | Comments

Info:

Real Name:

Location: | Age:

Comments: 4 | Tabs rated: 0

Submitted 0 total:

You don't have submitted tabs at the moment

Comments 4 total:

except for the solo this tab is spot on!  Here is how I play the solo


"\/" denotes the use of whammy bar.  But if U don't have one like me U
can approximate the sound by using vibrato, string bends, and even plucking 
the note a few more times while your using your vibrato and/or bends.  
Play with the song and you will see what I mean.  So here go's


e----------------------------------------------------------------------------------------------------------
b-------------------\/------------------------------\/-----------------\/--------\/-\/---------------------
g---9-----9--11-----11--13--11--13--14--14--14--13--11--13--11--9--11--13--9--9--9--16---------------------
d------9---------9-----------------------------------------------------------------------------------------
a----------------------------------------------------------------------------------------------------------
e----------------------------------------------------------------------------------------------------------

e----------------------------------------------------------------------------------------------------------
b--------------------------------------\/--------------------\/--------\/----------------------------------
g--9--9-----11--\/--13--9--11--13--14--9--13--13--11--9--11--13--9--9--9-----------------------------------
d--------9------9------------------------------------------------------------------------------------------
a----------------------------------------------------------------------------------------------------------
e----------------------------------------------------------------------------------------------------------
The "no time to search" part should be a "B" as the second chord and not an "E"  Also there is some palm 
muting in the song which is not represented in your tab.  Other than that it would have been great!
Nickelback - Photograph Chords - Posted: 2006/02/19 8:39pm
Weather u play this song with a capo or not the verse and the chorus are exactly the same, and there is only 
the same 4 chords in each.  What I like to do to differentiate the two is use an electric.  Play the verses 
clean and then crank the distortion for the choruses.  One of the other standard tuning tabs here has it 
right.  Play the chords as bar chords with the bottom 2 strings ringing open.
Weezer - Beverly Hills Tab - Posted: 2006/01/02 7:06pm
good job thats pretty much how i play it but as with most weezer songs when they play barre chords on the 
2nd 3rd and 4th strings they like to barre across the first string as well!

Example

e---------------------------
b---------------------------
g--3---------------------3--
d--3-----would become----3--
a--1---------------------1--
e------------------------1--