Typecast - You Dont Need Eyes To See Chords & Tabs

 

You Dont Need Eyes To See Chords & Tabs

Typecast Chords & Tabs

Version: 1 Type: Tab

You Dont Need Eyes To See Tab

   
Typecast
You Don't Need Eyes To See(Intro)
Every Moss and Cobweb
Tabbed by: paramore_fans@yahoo.com

Mga tol, 1st time ko nag tab ng may piano sa bandang ito. Bahala na kayo mag rate. Pag
kayo mag piano, madali ninyong matutugtog ang kantang ito. Matalas dapat ang inyong tenga
nangangako akong 100% accurate itong gawa ko. anumang bayolenteng reaksyon, email nyo 
ako. Or send me a friendster message; n2sed_182@yahoo.com. Jeremy Asuncion name ko don 
galing talaga ng Typecast!!! Sila lang ang opm band na talagang nagustuhan ko. Tunog foreigner kasi e hehe.

Tuning: standard EADGBe

This song is originally played in a piano. I just converted it to guitar.

Key: E

Intro:
     C#m        B        A9
e|-----4---|-----2---|---------|-----|
B|-5-------|-4-------|-2-----0-|-2-4-|
G|---------|---------|-----2---|-----|
D|---6---6-|---4---4-|---2-----|-----|
A|-4-------|-2-------|-0-------|-----|
E|---------|---------|---------|-----|

     C#m        B        A9        A9
e|-----4---|-----2---|---------|-----0-------0-|
B|-5-------|-4-------|-2-----0-|-0---0---------|
G|---------|---------|-----2---|---1-2-----2---|
D|---6---6-|---4---4-|---2-----|-----2---2-----|
A|-4-------|-2-------|-0-------|-----0-0-------|
E|---------|---------|---------|---------------|


Verse:

Oh, this is not what I had in mind
      E (x2)             A9 (x2)
e|-------------0---|---------0---2-0-|
B|---------0-----0-|-----0-----0-----|
G|-----1-----1-----|-------2---------|
D|-------2---------|---2-------------|
A|---2-------------|-0---------------|
E|-0---------------|-----------------|

Oh, am I running out of time
      E (x2)             A9 (x2)
e|-------------0---|---------0---2-0-|
B|---------0-----0-|-----0-----0-----|
G|-----1-----1-----|-------2---------|
D|-------2---------|---2-------------|
A|---2-------------|-0---------------|
E|-0---------------|-----------------|
[ Tab from: https://www.guitartabs.cc/tabs/t/typecast/you_dont_need_eyes_to_see_tab.html ]
You donít need eyes to see
     C#m        Bsus4       A9
e|---------|-2-------|---------0---2-0-|
B|-------5-|-------5-|-----0-----0-----|
G|-----6---|-----4---|-------2---------|
D|---6-----|---4-----|---2-------------|
A|-4-------|-2-------|-0---------------|
E|---------|---------|-----------------|

You just need you heart to let me in
     C#m        Bsus4       A9
e|-4---0---|-2---2-0-|-------5-----0---|
B|---0---0-|---------|-----0-----0---0-|
G|---------|---------|---------2-------|
D|---------|---4-----|---2-------------|
A|-4-------|-2-------|-0---------------|
E|---------|---------|-----------------|

Itís not that hard to do
     C#m        Bsus4       A9
e|-4-----4-|-2---2---|---------7-------|
B|-5-----5-|-4---0---|-------0-5-------|
G|-6---6-6-|-4-------|-----2---6-2---2-|
D|-6-6-----|-4-4---4-|---2-----7---2---|
A|-4-------|-2-------|-0---------------|
E|---------|---------|-----------------|

Just let me hold you Let it all go
        E/G#          A9        Bsus4
e|-------7------0-|-5-------|-0-------|
B|-----0------0---|-------0-|-----0---|
G|----------1-----|-----2---|---------|
D|---2---6--------|---2-----|---------|
A|----------------|-0-------|-2-2---2-|
E|-4--------------|---------|---------|


Outro:
        C#m          F#m7
e|-4--------------|----------|
B|-5-----5----2-4-|-5-----5--|
G|-6---6----1-----|-2--------|
D|-6-6------------|-4---4----|
A|-4--------------|-4-4------|
E|----------------|-2--------|

Just let me hold you Let it all go
        A        Am9     C#m
e|-7\5-------0-|-7---|---4-----------------------|
B|-5----0------|-5---|-5-------4-5-4-2-----------|
G|-6------2----|-5---|---6---6---------1---------|
D|-7-----------|-7---|-----6---------------------|
A|-7-----------|-7---|---4----------------4(End)-|
E|-5-----------|-5---|---------------------------|


ENJOY!!!!!!!!!