The Mary Dream - All My Life Chords & Tabs

 

All My Life Chords & Tabs

The Mary Dream Chords & Tabs

Version: 1 Type: Tab

All My Life Tab

   
G/D    (Acoustic)        

e    |--------------------2-------------2----------2---------------|
B    |---------------3-------3-------------3---------3-------------|
G    |----------2---------------2--------------2---------2---------|
D    |-------------------------------------------------------------|
A    |-------------------------------------------------------------|
E    |--3----------------------------------------------------------|

D            

e    |--------------------2-------------2----------2---------------|
B    |---------------3-------3-------------3---------3-------------|
G    |----------2---------------2--------------2---------2---------|
D    |-------------------------------------------------------------|
A    |-------------------------------------------------------------|
E    |--0----------------------------------------------------------|

Csus (Acoustic)
e    |--------------------0-------------0----------0---------------|
B    |---------------3-------3-------------3---------3-------------|
G    |--------------------------0--------------0---------0---------|
D    |------2------------------------------------------------------|
A    |---3---------------------------------------------------------|
E    |-------------------------------------------------------------|


VERSE I (Electric)

e|-----7~--14-14-14-14----7~-10-10-10-10-1012\14-12-|
B|--7~-----------------7~--------------------------13|
G|---------------------------------------------------|
D|---------------------------------------------------|
A|---------------------------------------------------|
E|---------------------------------------------------|

VERSE II (Electric)

e|-14--10-10-10-10-10\12--1212\14-14-14-14-14\12-12\14-12|
B|-----7~-------------------------------------------------|
G|--------------------------------------------------------|
D|--------------------------------------------------------|
A|--------------------------------------------------------|
E|--------------------------------------------------------|




SOLO
e|-----14---14--------15----15--------------|
B|------------------------------------------|
G|--14---14---1414\16---16----16-----------|
D|------------------------------------------|
A|------------------------------------------|
E|------------------------------------------|
[ Tab from: https://www.guitartabs.cc/tabs/t/the_mary_dream/all_my_life_tab.html ]
e|------14-----------14----------14---------14----|
B|----------15-----------15----------15---------15|
G|--14----------14----------14----------14-------|
D|------------------------------------------------|
A|------------------------------------------------|
E|------------------------------------------------|

e|-----14---14--------15----15--------------|
B|------------------------------------------|
G|--14---14---1414\16---16----16-----------|
D|------------------------------------------|
A|------------------------------------------|
E|------------------------------------------|



e|-----15---15------15---15-----------------|
B|------------------------------------------|
G|--16---16-----16---16--------------------|
D|------------------------------------------|
A|------------------------------------------|
E|------------------------------------------|

INTRO
G/D G/D
D D

VERSE I

G/D        G/D
All my life

   D         D
Is not enough 

G/D        G/D
All my life

   D        D
Is not enough 
   Csus      Csus
Is not enough
   G/D       G/D
Is not Enough
Em  Csus
Time

CHORUS
           G    G
Time with you 
          Em    Em
Time with you
           G    G
Time with you 
           Em   Em
Time with you 
    Csus     Csus 
Is not enough 
    G         G
Is not enough 

B

VERSE II

G/D        G/D 
All my life
    D        D
Is not enough 
G/D        G/D 
All my life
    D         D
Is not enough 
   Csus      Csus
Is not enough
   G/D        G/D
Is not gnough
Em  Csus
Time


CHORUS
           G      G
Time with you 
           Em     Em
Time with you
           G       G
Time with you 
           Em      Em
Time with you 
   Csus      Csus 
Is not enough 
   G         G
Is not enough 

INTERLUDE
B C G D
Em C G D

Em
Time

CHORUS/OUTRO
          G    G
Time with you 
           Em  Em
Time with you
            G   G
Time with you 
          Em     Em
Time with you 
  Csus       Csus 
Is not enough 
   D         D
Is not enough 
Csus
Time
G
Time
G/D
Time