The Magic Numbers - Forever Lost Chords & Tabs

 

Forever Lost Chords & Tabs

The Magic Numbers Chords & Tabs

Version: 4 Type: Bass Tab

Forever Lost Bass Tab

   
-------------------------------------------------------------------------------
                             Forever Lost  The Magic Numbers
-------------------------------------------------------------------------------

Tabbed By : Hardway Juice

Tuning: E,A,D,G


Verse 1

(Rest for first two measures, come in on third)

                                    Darlin'...
G|99--99--99--99--|99--99--99--99--|99--99--99--99--|99--99--99--99--|99--99--99--99--|
D|---9---9---9---9|---9---9---9---9|---9---9---9---9|---9---9---9---9|---9---9---9---9|
A|----------------|----------------|----------------|----------------|----------------|
E|----------------|----------------|----------------|----------------|----------------|

                   I've been...
G|99--99--99--99--|----------------|----------------|----------------|----------------|
D|---9---9---9---9\22--22--22--22--|22--22--22--22--|22--22--22--22--|22--22--222-222-|
A|----------------|---2---2---2---2|---2---2---2---2|---2---2---2---2|---2---2--------|
E|----------------|----------------|----------------|----------------|----------------|


Chorus 1

  Don't...                          I wanna learn...
G|----------------|----------------|----------------|----------------|
D|---7--7----9--9-|---6--6---------|---7--7----9--9-|---6--6---------|
A|-----7-------9--|-----6--4-4-6-7-|-----7-------9--|-----6--444-667-|
E|5-------7-------|4---------------|5-------7-------|4---------------|

  I wanna go...
G|----------------|----------------|----------------|----------------|
D|---7--7----9--9-|---66646--------|----------------|----------------|
A|-----7-------9--|--------4--44---|----------------|----------------|
E|5-------7-------|4---------------|2---------------|7---------------|


Verse 2

  Darlin'...                                                          drivin'...
G|99--99--99--99--|99--99--99--99--|99--99--99--99--|99--99--99--99--|----------------|
D|---9---9---9---9|---9---9---9---9|---9---9---9---9|---9---9---9---9\22--22--22--22--|
A|----------------|----------------|----------------|----------------|---2---2---2---2|
E|----------------|----------------|----------------|----------------|----------------|


G|----------------|----------------|----------------|
D|22--22--22--22--|22--22--22--22--|22--22--222-222-|
A|---2---2---2---2|---2---2---2---2|---2---2--------|
E|----------------|----------------|----------------|


Chorus 2

  Don't...                          I wanna learn...
G|----------------|----------------|----------------|----------------|
D|---7--7----9--9-|---6--6---------|---7--7----9--9-|---6--6---------|
A|-----7-------9--|-----6--4-4-6-7-|-----7-------9--|-----6--444-667-|
E|5-------7-------|4---------------|5-------7-------|4---------------|

  I wanna go...
G|----------------|----------------|----------------|----------------|
D|---7--7----9--9-|---66646--------|----------------|----------------|
A|-----7-------9--|--------4--44---|----------------|----------------|
E|5-------7-------|4---------------|2---------------|7---------------|

[ Tab from: https://www.guitartabs.cc/tabs/t/the_magic_numbers/forever_lost_btab_ver_4.html ]
G|----------------|----------------|
D|----------------|----------------|
A|----------------|----------------|
E|2---------------|7---------------|


Mid Section


G|----------------|------------6464|----------------|444444444444-4--|
D|----------------|----------------|6666666666666466|------------6-64|
A|7777777777777766|444444444444----|----------------|----------------|
E|----------------|----------------|----------------|----------------|

    Looks...       wrong...  
G|----------------|------------6464|----------------|444444444444-4--|
D|----------------|----------------|6666666666666466|------------6-64|
A|7777777777777766|444444444444----|----------------|----------------|
E|----------------|----------------|----------------|----------------|

    Looks...       wrong...
G|----------------|------------6464|----------------|44444444444--4--|
D|----------------|----------------|6666666666666466|-----------46-64|
A|7777777777777766|444444444444----|----------------|----------------|
E|----------------|----------------|----------------|----------------|

    Looks...       wrong...
G|----------------|----------------|----------------|444444444444-4--|
D|----------------|---------------4|66-466-466-466-4|------------6-64|
A|77--77--77--77--|44--44--44--44--|----------------|----------------|
E|---7---7---7---7|---4---4---4----|----------------|----------------|

    Looks...       wrong...
G|----------------|----------------|----------------|--------|
D|----------------|---------------4|6-46-46-46-46---|--------|
A|77--77--77--77--|44--44--44--44--|--------------7-|0-------|
E|---7---7---7---7|---4---4---4----|----------------|--------|  (only 1/2 measure, then...)


Chorus 3

(Rest for first two measures, come in on third)

  I wanna learn...                  I wanna go...
G|----------------|----------------|----------------|----------------|
D|---7-------9----|---6------------|---7--7----9--9-|---66646--------|
A|----------------|--------4-4-6-7-|-----7-------9--|--------4--44---|
E|5----5-57----7-7|4----4-4--------|5-------7-------|4---------------|


G|----------------|----------------|----------------|----------------|
D|----------------|----------------|----------------|----------------|
A|----------------|----------------|----------------|----------------|
E|2---------------|7---------------|2---------------|7---------------|


Outro Verse

  Darlin'...
G|99--99--99--99--|99--99--99--99--|99--99--99--99--|99--99--99--99--|----------------|
D|---9---9---9---9|---9---9---9---9|---9---9---9---9|---9---9---9---9\22--22--22--22--|
A|----------------|----------------|----------------|----------------|---2---2---2---2|
E|----------------|----------------|----------------|----------------|----------------|


G|----------------|----------------|--------------------------------|
D|22--22--22--22--|22--22--22--22--|22--22--2--2--2-----------------|
A|---2---2---2---2|---2---2---2---2|---2---2------------------------|
E|----------------|----------------|--------------------------------|



| /  slide up
| \  slide down
| h  hammer-on
| p  pull-off
| ~  vibrato
| +  harmonic
| x  Mute note
===============================================================================