The Fall Of Troy - Cut Down All The Trees And Name The Streets After Them Chords & Tabs

 

Cut Down All The Trees And Name The Streets After Them Chords & Tabs

The Fall Of Troy Chords & Tabs

Version: 1 Type: Tab

Cut Down All The Trees And Name The Streets After Them Tab

   
Hope this is good =]
its not perfect, but there wasn't a tab for it so I decided to make one for the song. 

==================
The Fall of Troy
==================
Song: Cut Down All The Trees And Name The Streets After Them
Album: Manipulator








[Verse/Intro]


Break yourself, not coming out of this foolish game...

e|--------------------------------------------------------------------------
b|--------------------------------------------------------------------------
g|-4-4-4-44-4-4-4-4-4-4-4-44-4-4-4-4-3-3-3-33-3-3-3-3-3-3-3-33-4-4-3-3-3-3--
d|-x-x-x-xx-x-x-x-x-x-x-x-xx-x-x-x-x-3-3-3-33-3-3-3-3-3-3-3-33-x-x-3-3-3-3--
a|-1-1-1-11-1-1-1-1-1-1-1-11-1-1-1-1---0---00---0---0---0---00-1-1---0---0--
E|--------------------------------------------------------------------------
                                                     




e|-------------------------------------7h5p0-7h5p0-9h7p0-9h7p0-15h14--|
b|--------------------------------------------------------------------|
g|-3-33-3-3-3-3-3-3-3-33-3-3-3-3--------------------------------------|
d|-3-33-3-3-3-3-3-3-3-33-3-3-3-3-2--2---------------------------------| [2x]
a|---00---0---0---0---00---0---0-2--2---------------------------------|
E|-------------------------------2--2---------------------------------|
                       







[Chorus]


Run there, If your going, then I'm taking you away with me...

                                                 First Time        2nd
                                          |______________________|_____|
e|----------------------------------------|----------------------|-----|
b|----------------------------------------|------------------9p0-|-3*^-|
g|-999--5-77--5-77--5-77--7-99--5-77--4-5-|--------------5h7-----|-----|
d|-xxx--x-xx--x-xx--x-xx--x-xx--x-xx--x-x-|----------------------|-----|
a|-777--3-55--3-55--3-55--5-77--3-55--2-3-|----------------------|-----|
E|----------------------------------------|-//Pickslide//--------|-----|
                                          |______________________|_____|







[Verse 2]


Did his helpless hands, take you away from this?

e|--------------------------------------------------------------------------
b|--------------------------------------------------------------------------
g|-4-4-4-44-4-4-4-4-4-4-4-44-4-4-4-4-3-3-3-33-3-3-3-3-3-3-3-33-4-4-3-3-3-3--
d|-x-x-x-xx-x-x-x-x-x-x-x-xx-x-x-x-x-3-3-3-33-3-3-3-3-3-3-3-33-x-x-3-3-3-3--
a|-1-1-1-11-1-1-1-1-1-1-1-11-1-1-1-1---0---00---0---0---0---00-1-1---0---0--
E|--------------------------------------------------------------------------
                                                     



e|-------------------------------------7h5p0-7h5p0-9h7p0-9h7p0-15h14s-|
b|--------------------------------------------------------------------|
g|-3-33-3-3-3-3-3-3-3-33-3-3-3-3--------------------------------------|
d|-3-33-3-3-3-3-3-3-3-33-3-3-3-3-2--2---------------------------------| [2x]
a|---00---0---0---0---00---0---0-2--2---------------------------------|
E|-------------------------------2--2---------------------------------|
                       






[Chorus]
                                                  First Time        2nd
                                          |______________________|________|
e|----------------------------------------|----------------------|--------|
b|----------------------------------------|------------------9p0-|--------|
g|-999--5-77--5-77--5-77--7-99--5-77--4-5-|--------------5h7-----|--------|
d|-xxx--x-xx--x-xx--x-xx--x-xx--x-xx--x-x-|----------------------|----2-2-|
a|-777--3-55--3-55--3-55--5-77--3-55--2-3-|----------------------|----2-2-|
E|----------------------------------------|-//Pickslide//--------|000-2-2-|
                                          |______________________|_____|





[Bridge] 


Break yourself!!!
[ Tab from: https://www.guitartabs.cc/tabs/t/the_fall_of_troy/cut_down_all_the_trees_and_name_the_streets_after_them_tab.html ]
e|--------------------------------------------------------------------------
b|--------------------------------------------------------------------------
g|-3-------5--------------------------------------------------7-------5-----
d|-3-[x12]-5-[x8]-17-17h19p17s15h17p15------------------12----7-[x12]-5-[x8]
a|-0-------3--------------------------17h19p17s16h17p16---12--5-------3-----
E|---------3--------------------------------------------------5-------3-----





        [First Ending]      ||[Second Ending]|
____________________________||_______________|
e|--------------------------||---------------|
b|--------10----------------||---------------|
g|-7p0-9p0----10h12p10s9----||---9-9-9-9-----|
d|-----------------------7--||---7-7-7-7-----|
a|--------------------------||---7-7-7-7-----|
E|--------------------------||---------------|
____________________________||_______________|





e|--------------xxxx--------------xxxx-------xxxx-------xxxx---------------|
b|--------------xxxx--------------xxxx-------xxxx-------xxxx---------------|
g|-9-9-9--7-7-7-xxxx-7-7-7--5-5-5-xxxx-4-4-4-xxxx-2-2-2-xxxx---------------|
d|-x-x-x--x-x-x-xxxx-x-x-x--x-x-x-xxxx-x-x-x-xxxx-x-x-x-xxxx-----2-------2-|
a|-7-7-7--5-5-5-xxxx-5-5-5--3-3-3-xxxx-2-2-2-xxxx-0-0-0-xxxx-----2-------2-|
E|--------------xxxx--------------xxxx-------xxxx-------xxxx-0-0-0-0-0-0-2-|
                                                                   
|__________________________________________________________________________|
                                    Repeat



  [Second Ending]

e|-----------------|
b|-----------------|
g|-----------[1]---|
d|-------2---[1]---|
a|-------2---[1]---|
E|-0-0-0-2-0-------|
        







[Ending]


This is where we stand!

e|-------------------------------------------------------
b|-------------------------------------------------------
g|-------------------------------------------------------
d|-------------------------------9-5p0-9-5p0-9-5p0-9-5p0- [x2]
a|-000000-000000-000000-000000---------------------------
E|-000000-000000-000000-000000---------------------------
      



e|-----------------------------------------------------------------------
b|-----------------------------------------------------------------------
g|-----------------------------------------------------------------------
d|------------------------------9-5p0-9-5p0-11-7p0-11-7p0-13-9p0-15-11p0-
a|-000000-000000-000000-000000-------------------------------------------
E|-000000-000000-000000-000000-------------------------------------------
      


                                      FORNICATE!!!
e|--------------------------------------------------|
b|--------------------------------------------------|
g|--------------------------------------------------|
d|-17-13p0-18-14p0---//pickslide//------------------|
a|-----------------------------------000000-000000--|
E|-----------------------------------000000-000000--|
                                      



| p pull-off
| h hammer-on
|  palm mute
| ^ bend
| * harmonic
| s slide

Enjoy =]
comment/e-mail if you have any problems, questions, or concerns.
-John

____________________________________________________________________________

Break yourself, 
not coming out of this foolish game.
What could I have said?
If you're uncomfortable baby please tell me,
Point me to the right place.

Run there,
If your going,
then I'm taking you away with me.
(Just because! Just because!)
If I had my way,
I'd lie to you,
and tell the truth,
I'm joking get away from me.
(Just because! Just because!)

Did his helpless hands,
take you away from this?
Did it feel so good?
Oh no?
Yeah!!!
I didn't get the feeling you had an answer,
Explain yourself!
God it feels surreal...

Run there,
If your going,
then I'm taking you away with me.
(Just because! Just because!)
If I had my way,
I'd lie to you,
and tell the truth,
I'm joking get away from me.
(Just because! Just because!)

Break yourself!!!
Without a moment to embellish truth,
signed by you.
Hear the roar,
and in a second more,
you'll be overboard...
Goodbye...

This is where we stand!
This is where we stand!
This is where we stand!
This is where we stand!
This is where we stand!
This is where we stand!
Fornicate!!!