Protest The Hero - Bloodmeat Chords & Tabs

 

Bloodmeat Chords & Tabs

Protest The Hero Chords & Tabs

Version: 1 Type: Bass Tab

Bloodmeat Bass Tab

   
Tabbed by: Daniel Corrigan


Intro
Gb|-----------------|------------------|
Db|-----------------|------------------|X2
Ab|-----------------|------------------|
Eb|-0-0-00-0-0-0-00-|-0-0-00-0-0-0-000-|


(guitar part)
Gb|-----------------------------------|-----------------------------------|
Db|---9--9-7--------------------------|---9--9-7--------------------------|
Ab|------------8-11-8-----9-12-9------|------------8-11-8-----11-14-11----|
Eb|-0-----------------9----------12-0-|-------------------9------------13-|


Gb|-----------------|------------------|
Db|-----------------|------------------|
Ab|-----------------|------------------|
Eb|-0-0-00-0-0-0-00-|-0-0-00-0-0-0-000-|


(guitar part)
Gb|-----------------------------------|-----------------------------------|
Db|---9--9-7--------------------------|---9--9-7--------------------------|
Ab|------------8-11-8-----9-12-9------|------------8-11-8-----11-14-11----|X2
Eb|-0-----------------9----------12-0-|-------------------9------------13-|


Gb|------------------|
Db|------------------|
Ab|------------------|X2
Eb|--0-00------------|

Verse
Gb|---------------------------|------------------------------|
Db|---------------------------|------------------------------|
Ab|-----5-7-------1--0-0--1-2-|-----5-7--------------2--0----|X2
Eb|--0-------0-3--------------|--0-------0-3--5--3-0-------3-|

Gb|---------------------------|
Db|---------------------------|
Ab|---------------------------|
Eb|--3--000-000--3--000-000---|

Gb|---------------------------|------------------------------|
Db|---------------------------|------------------------------|
Ab|-----5-7-------1--0-0--1-2-|-----5-7--------------2--0----|X2
Eb|--0-------0-3--------------|--0-------0-3--5--3-0-------3-|
Gb|---------------------|-----------|--------------|---------------|
Db|---------------------|-----------|--------------|-----------5---|
Ab|---------------------|-----------|-5-6-7-10--|---------------|
Eb|--3--000-000-000-3--|--0-000-0-|--------------|-00-0-0-0-0-0-|

Bass solo
Gb|-------12------------12-14-12------|
Db|-----------------14-----------14-12-|
Ab|-12-10-----12-10--------------------|
Eb|------------------------------------|



Gb|---------------|
Db|-----------5---|
Ab|---------------|X4
Eb|-00-0-0-0-0-0-|

Chorus
Gb|-----------------|---------------|
Db|-----------------|---------------|
Ab|-----------------|---------------|
Eb|-5-5-5-5-5-5-5-5-|-5-5-5-5-5-5-5-|

Gb|-----------------|-----------------|
Db|-----------------|-----------------|
Ab|-----------------|-----------------|
Eb|-3-3-3-3-3-3-3-3-|-3-3-3-3-3-3-3-3-|

Gb|-----------------|-----------------|
Db|-----------------|-----------------|
Ab|-----------------|-----------------|
Eb|-1-1-1-1-1-1-1-1-|-1-1-1-1-1-1-1-1-|

Gb|-----------------|-----------------|
Db|-----------------|-----------------|
Ab|-3-3-3-3-3-3-3-3-|-----------------|
Eb|-----------------|-3-3-3-3-3-3-3-3-|

Bridge1
Gb|-----------------|---------------|
Db|-----------------|---------------|
Ab|-----------------|---------------|X2
Eb|-5-5-5-5-5-6---|-5--5-5-5-5-3-|



Bridge2
Gb|---------------------|-----------------------|
Db|---------------------|-----------------------|
Ab|---------------------|-----------------------|X2
Eb|-0-0---0---0-0-0-0-|-0-0---0---0-0-0-0-0-|

(intro riff)
Gb|-----------------|
Db|-----------------|
Ab|-----------------|
Eb|-0-0-00-0-0-0-00-|
[ Tab from: https://www.guitartabs.cc/tabs/p/protest_the_hero/bloodmeat_btab.html ]
Bridge2
Gb|---------------------|-----------------------|
Db|---------------------|-----------------------|
Ab|---------------------|-----------------------|X2
Eb|-0-0---0---0-0-0-0-|-0-0---0---0-0-0-0-0-|

(inrto riff)
Gb|-----------------|------------------|
Db|-----------------|------------------|
Ab|-----------------|------------------|
Eb|-0-0-00-0-0-0-00-|-0-0-00-0-0-0-000-|


(guitar part)
Gb|-----------------------------------|-----------------------------------|
Db|---9--9-7--------------------------|---9--9-7--------------------------|
Ab|------------8-11-8-----9-12-9------|------------8-11-8-----11-14-11----|X2
Eb|-0-----------------9----------12-0-|-------------------9------------13-|

Gb|------------------|
Db|------------------|
Ab|------------7*b---|
Eb|--0-00-0-0--------|

Verse
Gb|---------------------------|------------------------------|
Db|---------------------------|------------------------------|
Ab|-----5-7-------1--0-0--1-2-|-----5-7--------------2--0----|X2
Eb|--0-------0-3--------------|--0-------0-3--5--3-0-------3-|






Bridge3
Gb|----------------|---------------|----------------|-----------------|
Db|----------------|---------------|----------------|-----------------|
Ab|-5---5-55---5---|-5---5---------|-5---5-55---5---|-5---5-----------|X2
Eb|---4------4---4-|---4-----------|---4------4---4-|---4---12\-------|

Gb|-----------------|
Db|-----------------|
Ab|-----------------|
Eb|-5-5-5-5-5-5-5-5-|

Chorus X2
Gb|-------------5p4p0-------|-------------9p7p5-------|
Db|-------5-7-9-------3p2p0-|-------5-7-9-------9p7p5-|
Ab|-5-7-8-------------------|-5-7-8-------------------|
Eb|-------------------------|-------------------------|
    T T T T T T T     T       T T T T T T T     T

Gb|-----------------------------|-----------------------------|
Db|---------------12p9p7--------|-----------------------------|
Ab|--------7-8-10--------10p8p7-|--------7-------------7-8-10-|
Eb|-7-8-10----------------------|-7-8-10---10p8-7-8-10--------|
    T T T  T T T  T      T        T T T  T T    T T T  T T T

Gb|-------------5p4p0-------|-------------5p4p0-------|
Db|-------5-7-9-------3-----|-------5-7-9-------3-----|
Ab|-3-7-9---------------3-5-|-3-7-9---------------3-5-|
Eb|-------------------------|-------------------------|
    T T T T T T T     T T T   T T T T T T T     T T T

Gb|--------------------------|-12p10p9--9------------------|
Db|-0h2h3-0h3h5-0h5h7-0h8h10-|--------12---12p10p9---------|
Ab|--------------------------|---------------------12p10---|
Eb|--------------------------|--------------------------12-|

Gb|-----------------------|-----------------------|
Db|-----------------------|-----------------------|
Ab|---------23---------23-|---------23---------23-|
Eb|-1-1-1-1----5-5-5-5----|-3-3-3-3----3-3-3-3----|


Outro verseX2
Gb|-------------------|-------------------|
Db|-------------------|-------------------|
Ab|-------------------|-3-3-3-3-3-3-3-3-3-|
Eb|-1-1-1-1-1-1-1-1-1-|-------------------|

Gb|-------------------|---------------|
Db|-------------------|---------------|
Ab|-------------------|---------------|
Eb|-3-3-3-3-3-3-3-3-3-|-3-3-3-3-3-3-3-|

Outro verse2
Gb|-------------------|----------0-4-5-4---|
Db|---------0-2-3-2---|-0-2-3-2----------3-|
Ab|-0-2-3-2---------3-|--------------------|
Eb|-------------------|--------------------|

Gb|-------------------|---------------|
Db|-------------------|---------------|
Ab|-------------------|---------------|X2
Eb|-3-3-3-3-3-3-3-3-3-|-3-3-3-3-3-3-3-|

Outro
Gb|-------------------------|------------------------|
Db|-------------------------|------------------------|
Ab|---5-7-----------1-0-2-0-|---5-7-----------2------|X2
Eb|-0-----0-3-5-0-6---------|-0-----0-3-5-0-6---3--0-|

Legend
h=   hammer on
p=   pull off
T=   tap
*7*= pinch harmonic
b=   bend