Protest The Hero - Blindfolds Aside Chords & Tabs

 

Blindfolds Aside Chords & Tabs

Protest The Hero Chords & Tabs

Version: 2 Type: Tab

Blindfolds Aside Tab

Heres the solo to Blindfolds Aside. I saw this other one, it didn't impress me, so i 
i'd post this. It's right.

E------------------------------------------------------------------|
B------------------------------------------------------------------|
G----------------------------------/12-9v-9--9-0---9-000-10-000----|
D--/109v9---9-9-9h10p9/7-9---------------------------------------|
A----------------------------7-9-10--------------------------------|
E------------------------------------------------------------------|

E------------------------------------------------------------------|
B------------------------------------------------------------------|
G14p12p11h12p11---------------------11(b12r)---9-9-9-9-11-11-11-11-|
D--------------12-10v--10-10-9(b10r)--------12---------------------|
A------------------------------------------------------------------|
E------------------------------------------------------------------|
                                                  sweep
E------------------------------------------------------10h13p10-----|
B-----------10-10-10-10-12-12-12-12-10-10-10-10------11--------11---|
G12-12-12-12---------------------------------------10------------10-|
D------------------------------------------------12-----------------|
A----------------------------------------------13-------------------|
E-------------------------------------------------------------------|
[ Tab from: https://www.guitartabs.cc/tabs/p/protest_the_hero/blindfolds_aside_tab_ver_2.html ]
E---------------12-13-12------15-------------------------------------|
B------------15----------13------------------------------------------|
G--10-10--15---------------12----11v---12-12-11-12-14-14-12-14-16-16-|
D--------------------------------------------------------------------|
A--------------------------------------------------------------------|
E--------------------------------------------------------------------|

E----------------------------------------12h13p1212h13p12h13------|
B-------------------------------------------------------------12vv-|
G14-16-17-17-16-17-19v--19-19--17-17--17---------------------------|
D------------------------------------------------------------------|
A------------------------------------------------------------------|
E------------------------------------------------------------------|

E--------------------------------------------------------------------|
B-12--12-12-12-9v9-9--9-10-10p0-12p0-13p0-12p0-13p0-15p0-13p0-15p0-|
G--------------------------------------------------------------------|
D--------------------------------------------------------------------|
A--------------------------------------------------------------------|
E--------------------------------------------------------------------|

E-----------------------------------------------------------------|
B-17p0-15p0-13p0-15p0-12------------------------------------------|
G------------------------13v--13-13/------------------------------|
D-----------------------------------------------------------------|
A-----------------------------------------------------------------|
E-----------------------------------------------------------------|