Papa Roach - Time And Time Again Chords & Tabs

 

Time And Time Again Chords & Tabs

Papa Roach Chords & Tabs

Version: 3 Type: Bass Tab

Time And Time Again Bass Tab

Band: Papa Roach
Song: Time And Time Again
Tabber: Satan Man
Tabbers Email: death_metal6@hotmail.co.uk
Tuning: CGCF

Intro
|-----------------------------------|
|---------------------------------2-|
|----------------0-0-0--2-2-2--4----|
|--4-4-4--6-6-6---------------------| x3

|---------------------------------------------------------|
|-2-2-----2-2-----2-2-----2-2-----2-2-----2-2-----2-2-----|
|------4-------4-------4-------4-------4-------4-------4--|
|---------------------------------------------------------|

Verse x2
|-----------------------------------------|
|-----------------------------------------|
|---0-0----0-0----0-0----0-0----0-0-------|
|------4------4-----4------4------4--4--|

|-----------------------------------------|
|-------2------2------2------2------2-----|
|---4-4----4-4----4-4----4-4----4-4----4--|
|-----------------------------------------|

|-----------------------------------------|
|-----------------------------------------|
|---0-0----0-0----0-0----0-0----0-0-------|
|-----4------4-----4------4------4--4--|

|--------------------------------------|
|--------2------2----------------------|
|----4-4----4-4----4-4--------------0-|
|------------------------x-x-6---x-x---|

Chorus
|-------------------------------|
|-------------------------------|
|-1-/-4-----------1-/-4---------|
|---------4-/-6-----------4-\-2-|

Verse x2
|-----------------------------------------|
|-----------------------------------------|
|---0-0----0-0----0-0----0-0----0-0-------|
|------4------4-----4------4------4--4--|
[ Tab from: https://www.guitartabs.cc/tabs/p/papa_roach/time_and_time_again_btab_ver_3.html ]
|-----------------------------------------|
|-------2------2------2------2------2-----|
|---4-4----4-4----4-4----4-4----4-4----4--|
|-----------------------------------------|

|-----------------------------------------|
|-----------------------------------------|
|---0-0----0-0----0-0----0-0----0-0-------|
|-----4------4-----4------4------4--4--|

|--------------------------------------|
|--------2------2----------------------|
|----4-4----4-4----4-4--------------0-|
|------------------------x-x-6---x-x---|

Chorus
|-------------------------------|
|-------------------------------|
|-1-/-4-----------1-/-4---------|
|---------4-/-6-----------4-\-2-|

Bridge x2
|-------------------------------------------------------|
|-------------------------------------------------------|
|-------------------------------0-0-0-0--0-0-0-0--0-0-0-|
|--4-44-4--4-4-4-4--4-4-4-----------------------------|

|----------------------------------------------------------|
|----------------------------------------------------------|
|----------------------------------------------------------|
|---00-0-0-0-0-0-0---0-0-0-----2-2-2-2--2-2-2-2--2-2-2---|

Post-Bridge x3
|-----------------------------------|
|---------------------------------2-|
|----------------0-0-0--2-2-2--4----|
|--4-4-4--6-6-6---------------------| 

Chorus x2
|-------------------------------|
|-------------------------------|
|-1-/-4-----------1-/-4---------|
|---------4-/-6-----------4-\-2-|

Outro
|-----------------------------------|
|---------------------------------2-|
|----------------0-0-0--2-2-2--4----|
|--4-4-4--6-6-6---------------------| x3

|---------------------------------------------------------|
|-2-2-----2-2-----2-2-----2-2-----2-2-----2-2-----2-2-----|
|------4-------4-------4-------4-------4-------4-------4--|
|---------------------------------------------------------|