Orange Juice - Rip It Up Chords & Tabs

 

Rip It Up Chords & Tabs

Orange Juice Chords & Tabs

Version: 1 Type: Chords

Rip It Up Chords

Couldn't find a tab for this song so i've had a go myself.  These are the basic 
chords, so have a listen to the song for the strumming pattern.
[ Tab from: https://www.guitartabs.cc/tabs/o/orange_juice/rip_it_up_crd.html ]
Part A (Verse/Chorus)
e--8---8---8---8-----8--8-------10---10--10-10-10-10-10-10-(14)-|
B--8---8---8---8-----8--8-------12---12-12-12-12-12-12-12-(15)-|
G--9---9---9---9-----9--9-------11---11--11-11-11-11-11-11-(14)-|
D--10-10--10--10----10-10------12---12--12-12-12-12-12-12------|
A---------------------------------------------------------------|
E---------------------------------------------------------------|


Part B (Post Chorus)
e--8----7----8---3-------|
B--8----7----8---3-------|
G--9----7----9---4-------|
D--10--------10--5-------|
A------------------------|
E------------------------|

Orange Juice Myspace: http://www.myspace.com/hokoyo
Latest info on Orange Juice:   http://www.nme.com/news/nme/40902
Wikipedia: http://en.wikipedia.org/wiki/Orange_Juice