Monty Python - Always Look On The Bright Side Of Life Chords & Tabs

 

Always Look On The Bright Side Of Life Chords & Tabs

Monty Python Chords & Tabs

Version: 2 Type: Tab

Always Look On The Bright Side Of Life Tab

   
    ___________________________________________________
   /  Always Look on the Bright Side of Life (Intro)  / Thought I'd tab this out
  /  Monty Python              _____________________ / since no one had done it
 /  Life of Brian Soundtrack  / 100% yet! Do I have to explain what it's about?
/____________________________/ It's just so genious - play it when you're down!



 The song is played on a steel-stringed guitar with a pick. I've added the
 lyrics below the tabs, so that the syllables roughly matches the timing of
 the notes. It's in G major all the way.

                                   D13
:------------------------------------------------:
:-----------------------------12-------12--------:
:------------------------9-11---------9----------:
:----------------9-10-12------------10-----------:
:-12p10p9--10-12-------------------9-------------:
:------------------------------------------------:


        Cmaj7              Cmmaj7        Gmaj7           Cmaj7
:-----|--------------------------------|-----------------------3-----|
:-----|-5------------------4-----------|-3--------3------5--------5--|
:-----|-4------------------4-----------|-------4------------4--------|
:-----|-5------------------5-----------|----4------------5-----------|
:-----|--------------------3-----------|-----------------3-----------|
:-----|--------------------------------|-3---------------------------|
Some... things in life are bad, They can really make you mad,

[ Tab from: https://www.guitartabs.cc/tabs/m/monty_python/always_look_on_the_bright_side_of_life_tab_ver_2.html ]
  D9                Am11               Gmaj13
|-5-----------5---------------5------|-------------0-------------------|
|-5-------5---------8----p5---5------|----------3-----3----------------|
|-5---5-------------5---------5----5-|-------4-----------4-------------|
|-0-----------------0---------0------|----4-------------------4--------|
|------------------------------------|---------------------------------|
|------------------------------------|-3-------------------------------|
  Other things just make you swear and curse,            When you're...


  Cmaj7             Cm13           Gmaj7            E7
|-3-----------------5------------|------------------0-----------------|
|-5-----------------4------------|-3-------------------------3--------|
|-4-----------------3------------|-4----------------------1-----------|
|-5-----------------5------------|-4-------------------2--------------|
|-3-----------------3------------|-x----------------------------------|
|--------------------------------|-3----------------0-----------------|
  chewing on life's gristle, Don't grumble - give a whistle,    And...


  A13                                  D13
|-2----------------------------------|-----------------<7>-----------|
|-0----------------------------------|-3--------3-----<7>------------|
|-0----------------------------------|-------5-------<7>-------------|
|-2----------------------------------|----4---------<7>--------------|
|-0----------------------------------|-5-----------------------------|
|------------------------------------|-------------------------------|
  this'll help things turn out for the best,        And...!


- 20th /July /07
Just mail me at Maitinin@gmail.com with questions, comments and corrections!