Modest Mouse - Cowboy Dan Chords & Tabs

 

Cowboy Dan Chords & Tabs

Modest Mouse Chords & Tabs

Version: 3 Type: Tab

Cowboy Dan Tab

   
Cowboy Dan
Modest Mouse
Tabbed by Peter (grubepeter@yahoo.com)
Standard Tuning (E, A, D, G, B, E)

(The b above the note means to bend and the / means to slide)


Intro/Main Theme

-------------------------------|
-------------------------------|
-------------------------------|  ( x18 )
-----11--12----11--12----------|
---9--------12--------12--11---|
-------------------------------|

Intro to 2nd Theme

----------------------------------------------------|
----------------------------------------------------|
----------------------------------------------------|  ( x1 )
----------------------------------------------------|
---9--9--9--9--9------------------------------------|
-----------------9--9----9--10--9--10--9--7--7------|

2nd Theme

------------------------------------------------|
------------------------------------------------|
---11-11-11-11-11-------------------------------|  ( x7 )
---x--x--x--x--x--11-11----11-12-11-12-11-9-9---|
---9--9--9--9--9--x--x-----x--x--x--x--x--x-x---|
------------------9--9-----9--10-9--10-9--7-7---|

Main Theme

-------------------------------|
-------------------------------|
-------------------------------|  ( x4 )
-----11--12----11--12----------|
---9--------12--------12--11---|
-------------------------------|

Transition Into 3rd Theme

-----------------------------------------------------|
-----------------------------------------------------|
-----------------------------------------------------|
---------11----11----------------------------11------|
---9--12----12----12-------11----11----11-------12---|
---------------------9--12----12----12----12---------|

------------------------------------------------------|
------------------------------------------------------|
------------------------------------------------------|  ( x1 )
------------------11----------------------------------|
---9----9----9-------12--9----------------------------|
-----10---10---10----------10---9--10--7--9--10--12---|


3rd Theme
[ Tab from: https://www.guitartabs.cc/tabs/m/modest_mouse/cowboy_dan_tab_ver_3.html ]
-----------------------------------------------------|
-----------------------------------------------------|
-----------------------------------------------------|
---11----11----11----------------------------11------|
------12----12----12-------11----11----11-------12---|
---------------------9--12----12----12----12---------|

------------------------------------------------------|
------------------------------------------------------|
------------------------------------------------------|  ( x4 )
------------------11----------------------------------|
---9----9----9-------12--9----------------------------|
-----10---10---10-----------10--9--10--7--9--10--12---|

4th Theme
           B                        B              B
-------------------------------------------------------|
-------------------------------------------------------|
-------------------------------------------------------|  ( x3 )
--11--12--14----14--12/11--9--7--7--9----11--9--7--7---|
-------------------------------------------------------|
-------------------------------------------------------|

Transition Into Main Theme
(Tack this onto the 4th Theme the third time you play it.)

---------------|
---------------|
---------------|  ( x1 )
-----7---7-----|
---9---9---9---|
---------------|

Main Theme

------------------------------|
------------------------------|
------------------------------|  ( x13 )
----11--12----11--12----------|
--9--------12--------12--11---|
------------------------------|

2nd Theme

-----------------------------------------------|
-----------------------------------------------|
--11-11-11-11-11-------------------------------|  ( x6 )
--x--x--x--x--x--11-11----11-12-11-12-11-9-9---|
--9--9--9--9--9--x--x-----x--x--x--x--x--x-x---|
-----------------9--9-----9--10-9--10-9--7-7---|

Solo

-------------------------------|
-------------------------------|
--11--x--x--x--x--x--x--x--x---|
---x--x--x--x--x--x--x--x--x---|
---9--x--x--x--x--x--x--x--x---|
-------------------------------|

-------------------------------|
-------------------------------|
-------------------------------|  ( x2 )
--11--x--x--x--x--x--x--x--x---|
---x--x--x--x--x--x--x--x--x---|
---9--x--x--x--x-x--x--x--x---|

The solo gets far too crazy to tab out from here.
Just make up your own because there are very few
people who could play this exactly like
Issac Brock does.