Misc Unsigned Bands - Our Silence Will Be Heard - He-man Womun Hater Chords & Tabs

 

Our Silence Will Be Heard - He-man Womun Hater Chords & Tabs

Misc Unsigned Bands Chords & Tabs

Version: 1 Type: Bass Tab

Our Silence Will Be Heard - He-man Womun Hater Bass Tab

00:00-00:13                           x4
|---------------------------|
|----------------------------|
|--5----3-5---6-5-6-5-3-5----|
|---------------------------|


00:13-00:25
|---------------------------------------------------------------------------------------|
|---------------------------------------------------------------------------------------|
|--5-----3-5-----6-5-6-5-3-5-------5-----3-5-----6-5-6-5-3-5-------5-----3-5-----6-5-6-5|
|----0-0-----0-0-------------0-0-0---3-3-----3-3-------------3-3-3---5-5-----5-5--------|

|--------------------------------------------|
|--------------------------------------------|
|--3-5-------5-----3-5-----6-5-6-5-3-5-------|
|------5-5-5---5-5-----5-5-------------5-5-5-|


Verse 00:25-00:39        1:02-1:14 than to acoustic part
|-------------------------------------------------------------|
|-------------------------------------------------------------|
|--5-----3-5-----6-5-6-5-3-5-------5-----3-5-----6------------|
|----0-0-----0-0-------------0-0-0---3-3-----3-3---6--5--3--1-|

|------------------------------------------------------------------|--------------------|
|------------------------------------------------------------------|--------------------|
|--5-----3-5-----6-5-6-5-3-5-------5-----3-5-----6-5-6-5-3-5-------|--------------------|
|----5-5-----5-5-------------5-5-5---5-5-----5-5-------------5-5-5-|----8--7--5-3--5--1-|


Chorus 00:39-1:02       x2
|-----------------------------------------------------------------|
|-----------------------------------------------------------------|
|-----------------------------------------------------------------|
|--0-0-3-0-6-5-3-5---0-0-0-2-0-3-0-0-0-3-0-6-5-3-5--0-5-0-3-0-2-0-|
[ Tab from: https://www.guitartabs.cc/tabs/m/misc_unsigned_bands/our_silence_will_be_heard_he_man_womun_hater_btab.html ]
|-------------------------------------------------------------------|
|-------------------------------------------------------------------|
|-------------------------------------------------------------------|
|--0-0-3-0-6-5-3-5--0-0-0-2-0-3-0-0-0-3-6-5-3-5-8---7---5--3---5--1-|


Acoustic Part 1:14-1:40    x2     Just improv over 5 chords (hold your finger down over 
strings and just make up rhytmes)
|-------------------------------------------------------------------------------|
|--------0--0-------------------3---3-------------------5--7--7b8--7--5-7--7\---|
|------0-------0--------------3--------3--------------5-------------------------|
|--0--------------0-0------3---------------3-3-3---5----------------------------|

Than go to chorus ( no repeat )  and come here vvv
1:40-2:06                just random rythems with this note
|----------------------------------------|
|----------------------------------------|
|----------------------------------------|
|--1-----------------------1-------------|

Cool snare part   2:06-2:30  x4
|-------------------------------------------------------------------------|
|-------------------------------------------------------------------------|
|-------------------------------------------------------------------------|
|--0-----------0---0--0----------0----0--0-------0----0--0--------0--2b3--|

Breakdown 2:30-3:26:  Just play the rhytm on the open lowest d string

Random Transition 3:26-3:30: do nothing

First half ending: 3:30-3:52         x2
|--------------------------------------------------------------------|
|--------------------------------------------------------------------|
|--------------------------------------------------------------------|
|--8-8-8-8-8-8-8-8-8-8-8-8-8-8-8-10--0-0-0-0-0-0-0-0-3-3-3-3-3-3-3-5-|

Second Half Ending 3:52- 5:00                x6
|--------------------------------------------------------------------------------------|
|--------------------------------------------------------------------------------------|
|--------------------------------------------------------------------------------------|
|--8-8-8-8-8-8-8-8-8-8-8-8-8-8-8-8-8-8-0-0-0-0-0-0-0-0-0-0-0-0-0-0-0-0-0-0-0-0-0-0-0-0-|

Ending Synth Guitar snare thing

Fin