Gavin Degraw - Crush Chords & Tabs

 

Crush Chords & Tabs

Gavin Degraw Chords & Tabs

Version: 1 Type: Chords

Crush Chords

   
I love this song and had to make an arrangement that sounds good and was easy to play to 
for the vocal work.  I hope you enjoy and please let me know what you think.
Mjames-Streetmedic@comcast.net

GAVIN DEGRAW
"Crush"

Capo 1st Fret
Drop D Tuning
D E D G B E

E||---x----|---x---|---x---|
B||---2----|---x---|---x---|
G||---2----|---4---|---x---|
D||---2----|---4---|---4---|
A||---0----|---2---|---0---|
D||---x----|---x---|---0---|


When my pass came in, you dropped the ball
It didn't change the way I feel
And I was wishing I'd break down your walls
The kiss will know if the lips stay still
[ Tab from: https://www.guitartabs.cc/tabs/g/gavin_degraw/crush_crd.html ]
				Down up mutes between chords
E||---x----|---x---|---x---|---x---|---x---|---x---|---x---|
B||---2----|---1---|---0---|---x---|---5---|---4---|---x---|
G||---2----|---1---|---0---|---x---|---5---|---4---|---x---|
D||---2----|---1---|---0---|---4---|---5---|---4---|---4---|
A||---0----|---0---|---0---|---4---|---x---|---x---|---4---|
D||---x----|---x---|---x---|---4---|---x---|---x---|---4---|
There is a line I crossed
And when you missed I lost
I'm not a loser
Girl, you know that I'll be back again
My dear, I went for the steal
Maybe it was rushed
Oh, my crush, Iíve got a crush
I suppose that I could hold it in
But you excite my every cell
Sources say that sense are your friends
My senses say that I should tell
You that Iím not ashamed
You might just feel the same
But have to try it
If you're ever really going to know
My dear, I went for the steal
Maybe it was rushed
Oh, my crush, I've got a crush
I want to
I need to
I have to have you
You're so much to touch
Girl, you're too much
And I can't control it - You've got me all over the road
My dear, I went for the steal
Maybe it was rushed
Oh, my crush
Damaging my soul
You blew me off, but I don't mind
i just get better with time
And so do you
So do you
My crush