Escape The Fate - Dragging Daed Bodies In Blue Bags Up Really Long Hills Chords & Tabs

 

Dragging Daed Bodies In Blue Bags Up Really Long Hills Chords & Tabs

Escape The Fate Chords & Tabs

Version: 1 Type: Bass Tab

Dragging Daed Bodies In Blue Bags Up Really Long Hills Bass Tab

   
Dragging dead bodies in blue bags up really long hills
Escape the fate
Tabbed by: Synysterblack
Drop C (cgcf)

Not sure if itís all right or not but if you have any suggestions please comment 
and show the corrections you think. 

-Intro-
F|------------------------------------------------------------------|
C|-------------------------1010------------------88-7---------------|
G|-88-77-1010-88-7-8--88-77----88-7-8--88-77-1010----8--88-77-------|
C|-----------------------------------------------------------00~----|

-Pre-verse-
F|------------------|
C|------------------|
G|------------------|
C|-0-----00---8/----|

-Verse-
F|---------------------------------------------------------------------------|
C|---------------------------------------------------------------------------|
G|---------------------------------------------------------------------------|
C|-888888888888101010107777777777777777-00000-00-00-000000000-00-00-0000-----|

F|---------------------------------------------------------------------------|
C|---------------------------------------------------------------------------|
G|---------------------------------------------------------------------------|
C|-888888888888101010107777777777777777-00000-00-00-000000000-00-00-0000-----|

F|----------------------------------------|
C|----------------------------------------|
G|----------------------------------------|
C|-88888888888877771010101010101010-55-77-|

-Chorus-
F|---------------------------------------------|
C|---------------------------------------------|
G|-----888-------------------------------------|
C|-0-00---8-88-8888-1010101010101010-333-555---|

F|---------------------------------------------|
C|---------------------------------------------|
G|-----888-------------------------------------|
C|-0-00---8-88-8888-1010101010101010-333-555---|

F|---------------------------------------------|
C|---------------------------------------------|
G|-----888-------------------------------------|
C|-0-00---8-88-8888-1010101010101010-333-555---|

F|---------------------------------------------------------------------|
C|---------------------------------------------------------------------|
G|-----888-------------------------------------------------------------|
C|-0-00---8-88-8888-10101010101010101010101010101010-33333333-10-8-8-7-|

-Pre-verse-
F|-------------------------------------------------------------------------|
C|-------------------------------------------------------------------------|
G|-------------------------------------------------------------------------|
C|-00000--00-00-00--00000--00-00-00--00000--00-00-00--00000--00-00-00------|

-Verse-
F|---------------------------------------------------------------------------|
C|---------------------------------------------------------------------------|
G|---------------------------------------------------------------------------|
C|-888888888888101010107777777777777777-00000-00-00-000000000-00-00-0000-----|

F|---------------------------------------------------------------------------|
C|---------------------------------------------------------------------------|
G|---------------------------------------------------------------------------|
C|-888888888888101010107777777777777777-00000-00-00-000000000-00-00-0000-----|

F|----------------------------|
C|----------------------------|
G|----------------------------|
C|-88888888888877771010-55-57-|

-Chorus- 
F|---------------------------------------------|
C|---------------------------------------------|
G|-----888-------------------------------------|
C|-0-00---8-88-8888-1010101010101010-333-555---|
[ Tab from: https://www.guitartabs.cc/tabs/e/escape_the_fate/dragging_daed_bodies_in_blue_bags_up_really_long_hills_btab.html ]
F|---------------------------------------------|
C|---------------------------------------------|
G|-----888-------------------------------------|
C|-0-00---8-88-8888-1010101010101010-333-555---|

F|---------------------------------------------|
C|---------------------------------------------|
G|-----888-------------------------------------|
C|-0-00---8-88-8888-1010101010101010-333-555---|

F|-----------------------------------------------------------------------|
C|-----------------------------------------------------------------------|
G|-----888---------------------------------------------------------------|
C|-0-00---8-88-8888-10101010101010101010101010101010-88888888-10-8-8-7-0-|

-Break- 
F|-----------|
C|-----------|
G|-----------|
C|-----------|

-Bridge- 
F|----------------------------------------------------------|
C|----------------------------------------------------------|
G|-----------88-8--88-8--77-7--77-7--88-8--88-8--77-7--77-7-|
C|-0-0-0-0-00----00----77----77----88----88----77----77-----|

F|--------------------------------------------------|
C|--------------------------------------------------|
G|---88-8--88-8--77-7--77-7--88-8--88-8--77-7-------|
C|-00----00----77----77----88----88----77----777777-|
(Listen to the song to get this part)

-Solo-
F|-----------------------------------------------|
C|-----------------------------------------------|
G|------------------7777-8888-10101010-12121212--|
C|-0000000000000000------------------------------|
F|-----------------------------------------------|
C|-----------------------------------------------|
G|-----------------------------------------------|
C|-0000000000000000-88888888-1010101010101010----|

F|-----------------------------------------------|
C|-----------------------------------------------|
G|------------------7777-8888-10101010-12121212--|
C|-0000000000000000------------------------------|

F|------------------------------------------------|
C|------------------------------------------------|
G|------------------------------------------------|
C|-0000000000000000-88888888-1010101010101010-0~--|

-Pre-chorus- 
F|--------------------------|
C|--------------------------|
G|--------------------------|
C|-8~101010101010-333-555---|

-Chorus-
F|---------------------------------------------|
C|---------------------------------------------|
G|-----888-------------------------------------|
C|-0-00---8-88-8888-1010101010101010-333-555---|

F|---------------------------------------------|
C|---------------------------------------------|
G|-----888-------------------------------------|
C|-0-00---8-88-8888-1010101010101010-333-555---|

F|---------------------------------------------|
C|---------------------------------------------|
G|-----888-------------------------------------|
C|-0-00---8-88-8888-1010101010101010-333-555---|
F|---------------------------------------------|
C|---------------------------------------------|
G|-----888-------------------------------------|
C|-0-00---8-88-8888-1010101010101010-333-555---|

F|-------------------------------------------------------------------------------|
C|-------------------------------------------------------------------------------|
G|-----888-----------------------------------------------------------------------|
C|-0-00---8-88-8888-10101010101010101010101010101010-88888888-101010101010101010-|

-End- 
F|---------------------------------------------------------------|
C|---------------------------------------------------------------|
G|---------------------------------------------------------------|
C|-00000-00-00-000000000-00-00-000000000-00-00-000000000-3-3-3-0-|