Built To Spill - Wherever You Go Chords & Tabs

 

Wherever You Go Chords & Tabs

Built To Spill Chords & Tabs

Version: 1 Type: Tab

Wherever You Go Tab

   
-------------------------------------------------------------------------------
			     WHEREVER YOU GO Ė Built to Spill
-------------------------------------------------------------------------------
Tabbed by: Ben
Email: dontcallmebenny@hotmail.com

Tuning: Standard

Riff A

e|----------------------|
B|----------------------|
G|-7--5-7-5-7--5-7-5-7--|
D|-7--5-7-5-7--5-7-5-7--|
A|-5--------------------|
E|----------------------|

Intro:

Riff A, F, C Ė play this 10 times, then switch to playing chords of F, C, Dmin 

The last time, before the singing comes in, play F, C, Bb, F Dmin

Verses:

F                                        Riff A
Mirrors make it right, how can that explain

F                                            Riff A
Nobody can tell what the hell theyíre even saying

Bb                        Dmin
No-one sees itís easier to change 
[ Tab from: https://www.guitartabs.cc/tabs/b/built_to_spill/wherever_you_go_tab.html ]
Bb                             Dmin 
No-one sleeps and no-one stays awake

F           Dmin
No-one complains

Bridge:

F             C	     Dmin
And Iíll find wherever you go

F              C               Dmin
Iíll help with things you donít know

F                 C          Dmin
And Iíll get you out of the show

F              C           Dmin
And Iíll find wherever you go

The rest of the song follows this pattern, with all the solos based in Dminor

e|-----------------------------------------10-12-13---|
B|---------------------------------10-11-13-----------|
G|--------------------------10-12---------------------|
D|-----------------10-12-14---------------------------|
A|---------10-12-13-----------------------------------|
E|-10-12-13-------------------------------------------|