Ben Lee - Love Me Like The World Is Ending Chords & Tabs

 

Love Me Like The World Is Ending Chords & Tabs

Ben Lee Chords & Tabs

Version: 3 Type: Tab

Love Me Like The World Is Ending Tab

-------------------------------------------------------------------------------
	           Love me like the world is ending (live)  Ben Lee
-------------------------------------------------------------------------------
Tabbed by: xx dmoney xx
Email: Macbeth-182@hotmail.com

Tuning: Standard
[ Tab from: https://www.guitartabs.cc/tabs/b/ben_lee/love_me_like_the_world_is_ending_tab_ver_3.html ]
   Intro x2                  
e|------------------------------|
B|------------------------------|
G|-----9-----9-----9---11---9---|
D|--77---777---777---7----7---7-|
A|------------------------------|
E|------------------------------|
   
Verse x4                    
e|------------------------------|---------------------------------|
B|------------------------------|---------------------------------|
G|-----9-----9-----9---11---9---|----9-----9-----9---11---9-------|
D|--77---777---777---7----7---7-|-00---000---000---0----0---0-----|
A|------------------------------|---------------------------------|
E|------------------------------|---------------------------------|
   
Chorus x4                      2nd chorus x2 (follow into bridge)
e|------------------------------|----------------------------|
B|-10-----10-----10-----10------|-10-----10-----10-----------|
G|--9------9------9------9------|--9------9------9-----------|
D|--0--x8--x-x8--x--x8--0x8---|--0-x8--x--x8--7-x16------|
A|--0------7------9------0------|--0------7------0-----------|
E|--x------x------x------x------|--x------x------x-----------|
   
Bridge- Palm mute x2 (add more emphasis on the bass note)
e|----------------------|
B|-10-----10-----10-----|
G|--9------9------9-----|
D|--x-x8--x--x8--0-x8-|
A|--9------7------x-----|
E|--x------x------x-----|

song structure

Intro
Verse
chorus
verse
chorus
bridge
verse
chorus