Azra - Filigranski Plocnici Chords & Tabs

 

Filigranski Plocnici Chords & Tabs

Azra Chords & Tabs

Version: 1 Type: Chords

Filigranski Plocnici Chords

   
FILIGRANSKI PLOČNICI

Intro:  e ----------------------------d-
        H ----------------------------d-
        G ----1--2-1----0-1-2-1-0-----d-  (3x), pa  D  A  E
        D -2--------2-------------2---d-
        A ----------------------------d-
        E ----------------------------d-

      e -------------------5----7---5---2---4--4----d-
      H ---0---0---0---0---5----7---5---3---5--5----d-
      G -------------------6----8---6---2---4--4----d-  (2x), pa D A E

      D -2---2---2---2------------------------------d-
      A --------------------------------------------d-
      E --------------------------------------------d-

[ Tab from: https://www.guitartabs.cc/tabs/a/azra/filigranski_plocnici_crd.html ]
        E
Ja sam kralj
A              E
Sudbina je metresa
A                  E
Sa zastakljenim ocima
D      A          E
Upravo prelazi ulicu
A              E
Ponekad je osjetim
A                 E
Na vrhovima prstiju
D           A
Grobnica za Borisa
E
Covjece

D    A       E
Ako zelis da saznas
D     A      E
Pristani na sve
Ako zelis da mijenjas ljude
Ne odmeci se

Ja sam kralj
Ti si zena pjesnika
Zasto places gospodo
Peludna groznica
Covjece

Ako zelis da saznas
Pristani na sve
Ako zelis da mijenjas ljude
Ne odmeci se

A           E
Filigranski plocnici
Puni baruta
Filigranski plocnici
  D       A   E
Usta puna baruta