Arctic Monkeys - I Bet You Look Good On The Dancefloor Chords & Tabs

 

I Bet You Look Good On The Dancefloor Chords & Tabs

Arctic Monkeys Chords & Tabs

Version: 4 Type: Tab

I Bet You Look Good On The Dancefloor Tab

   
I Bet That You Look Good On The Dancefloor
This is all from the single version of the song

Arctic Monkeys
www.arcticmonkeys.com
tabbed by meeee
tom tome182@aol.com


intro
F# x 8

Then into this


LEAD
F# chord
|-------------------------------------------------------------|
|-------------------------------------------------------------|
|-------------------------------------------------------------|
|-------------------------------------------------14-14-14-14-|
|-------------------------14-14-14-14-16-16-16-16-------------|
|-14-14-14-14-17-17-17-17-------------------------------------|


|-------------------------------------------------------------------|
|-------------------------------------------------------------------|
|------------14-14-14-14-16-16-16-16-16b-16b-16b-16b-16b-16b-16b-16b|
|16-16-16-16--------------------------------------------------------|
|-------------------------------------------------------------------|
|-------------------------------------------------------------------|
					       Start C#5 B5 A5 F#5 here
|--------------------------------------------|----------------------|
|--------------------------------------------|----------------------|
|16b-16-14----14-14-16-14----------14ó16-16b-|16-16-16-16-14--------|
|----------16-------------16-14-16-----------|--------------16-14-16|
|--------------------------------------------|----------------------|
|--------------------------------------------|----------------------|

|-------------------------------------------------------------------|
|-------------------------------------------------------------------|
|14-----------------------------------------------------------------|
|---16---16-16-16-16-14----------14---------------------------------|
|-----------------------16-14-16---16-14-12-14-12----------12-14-12-|
|-------------------------------------------------14-12-14----------|

|-------------------------|
|-------------------------|
|-------------------------|
|-------------------------|
|---------12-14b14--------|
|14-12-14-----------------|

That last bend is held longer and slowly released back to normal 14
[ Tab from: https://www.guitartabs.cc/tabs/a/arctic_monkeys/i_bet_you_look_good_on_the_dancefloor_tab_ver_4.html ]
VERSE
C#5      B5      A5       F#5           C#5        B5         A5 F#5
Stop making the eyes at me    ill stop making the eyes at you...

Continue with  C#5 B5 A5 F#5 five more times

Then play C#5 B5 A5 E5 once leading into chorus


CHORUS

F#5				A5
I bet that u look good on the dance floor I donít know if youíre

		E5 played on 12th fret
Looking for romance,
			   F#5 played on 14th fret
I donít know what youíre looking for

F#5                                       A5
I said I bet that that u look good on the dance floor dancing to electro
E5 (12th fret)             C#
Pop like a robot from 1984..from 1984


End of first chorus

|------------------------------------------------------|
|------------------------------------------------------|
|------------------------------------------------------|
|------------------------------------------------------|
|-14----14-14-14-14-14-14-14---------------------------|
|----17----------------------17-14--14-14-12-14--------|

the rest is just played around the F# pentatonic at the 14th fret, very easy to work out

VERSE 2
C#5 B5 A5 F#5 x 7
C#5 B5 A5 E5  X 1

CHORUS
F#5 A5 E5 (12th fret) F#5(14th fret) x1
F#5 A5 E5 (12th fret) C#5	     X1


BRIDGE
A5 		    E5                F#5
Well there aint no love no, Montagueís or capulets

Just banging tunes and DJ sets
A5			E5
And dirty dance floors, and dreams of naughtiness


F#5 played a lot
Listen to song for rhythm, and the use of harmonics
Also one guitar goes and plays 14thfret F# and ends on F#14th then E 12th fret, listen 
correctness

CHORUS

F#5				A5
I bet that u look good on the dance floor I donít know if youíre

		E5 played on 12th fret
Looking for romance,
			   F#5 played on 14th fret
I donít know what youíre looking for

F#5                                       A5
I said I bet that that u look good on the dance floor dancing to electro
E5 (12th fret)             C#
Pop like a robot from 1984..from 1984

F#5 one strum left to ring!