Zz Top - Master Of Sparks Chords & Tabs

 

Master Of Sparks Chords & Tabs

Zz Top Chords & Tabs

Version: 1 Type: Tab 0 ratings
1 star 2 stars 3 stars 4 stars 5 stars
comments

Master Of Sparks Tab

   
Tuning:E,A,D,G,B,E

Tableture Key

h-hammer on
p-pull off
B-bend
~-vibrato

|-----------------------------|
|-----------------------------|
|-----------------------------|
|-----------------------------|
|-----------------------------|
|-1h3-1h3-6-3p1h3-1h3-6-3p1h3-|

|-----------------------------|------------------|
|-----------------------------|------------------|
|-----------------------------|------------------| repeat to the 
|-----------------------------|-1h3p1h3p1h3p1h3p-|     intro
|-1h3-1h3-6-3p1h3-1h3-6-3p1h3-|------------------|
|-----------------------------|------------------|

Solo
[ Tab from: http://www.guitartabs.cc/tabs/z/zz_top/master_of_sparks_tab.html ]
|---------------------------------|---------------------------------|                                     
|---------------------------------|---------------------------------|
|---------------------------------|-3h5-3h5-8-5p3h5-3h5-8-5p3h5-3h5-|                                      
|-3h5-3h5-8-5p3h5-3h5-8-5p3h5-3h5-|---------------------------------|
|---------------------------------|---------------------------------|
|---------------------------------|---------------------------------|

|-----3h6p3-------3h6p3---------------|
|-3h6-------6p3h6-------6p3h6p3-3b----|
|-------------------------------3b----|
|----------------------------------5~-| Back To The Beginning
|-------------------------------------|
|-------------------------------------|

After the intro all the way through play a wierd bending solo that contains the wah-wah pedal

Bass

|---------------------|---------------------|
|---------------------|---------------------| Play this with the intro, solo 
|---------------------|-1h3-1h3-6-3p1h3-1h3-| 1 and solo 2 repeat both lines
|-1h3-1h3-6-3p1h3-1h3-|---------------------| about 4 times

Enjoy! ZZ TOP
Comments