Zz Top - La Grange Chords & Tabs

 

La Grange Chords & Tabs

Zz Top Chords & Tabs

Version: 5 Type: Tab 6 ratings
1 star 2 stars 3 stars 4 stars 5 stars
comments

La Grange Tab

   
#----------------------------------PLEASE NOTE---------------------------------#
#This file is the author's own work and represents their interpretation of the #
#song. You may only use this file for private study, scholarship, or research. #
#------------------------------------------------------------------------------##

                                    LA GRANGE
                              As recorded by ZZ Top


Gtr I (E A D G B E) - 'Gtr. 1'
Gtr II (E A D G B E) - 'Gtr. 2'
Gtr III (E A D G B E) - 'Gtr. 3'
Gtr IV (E A D G B E) - 'Gtr. 4'

  Q=162(8=s8)
             A5                        G   C     A5
 4/4
  Gtr I
  W          E E E E E E E E   E E E E E E E E   E     E E E E E E E
|----------|-----------------|-----------------|----------------------|
|----------|-----------------|-----------------|----------------------|
|----------|-2-2---2---2---2-|---2---------5---|-5b5.5-2---2---2---2--|
|----------|-2-2---2---2---2-|---2-----5---2---|-2-----2---2---2---2--|
|----------|-----------------|-------0-0-0---0-|----------------------|
|----------|-----------------|-----------------|----------------------|


          G   C     A5
  E E E E E E E E   E     E E E E E E E
|-----------------|---------------------|
|-----------------|---------------------|
|---2-----2---5---|-5b5.5-2---2---2---2-|
|---2---2-5-2-2---|-2-----2---2---2---2-|
|-------0---0---0-|-------------------0-|
|-----------------|---------------------|


          G   C     A5
  E E E E E E E E   E     E E E E E E E
|-----------------|---------------------|
|-----------------|---------------------|
|---2-----2---5---|-5b5.5-2---2---2---2-|
|---2-----5---2---|-2-----2---2---2---2-|
|---0---0---0---0-|---------------0-----|
|-----------------|---------------------|


  E E E E E E E E   E E E E E E E E   E E E E Q  E E   E E E E E E E E
|-----------------|-----------------|----------------|-----------------|
|-----------------|-----------------|----------------|-----------------|
|---2-----------2-|---2---2---2---2-|---2----------2-|---2-------------|
|---2---2-------2-|-2-2---2---2---2-|---2---2------2-|-2-2---2---2---2-|
|---------3p0-5---|-0-----0---0---0-|-------0-3--5---|-0-----0---0---0-|
|-----------------|-----------------|----------------|-----------------|


  E E E E Q  E E   E E E E E E E E   E E E E E E E E   E E E E E E E E
|----------------|-----------------|-----------------|-----------------|
|----------------|-----------------|-----------------|-----------------|
|----------------|---2---2---2---2-|---2---2-------2-|-------2---2---2-|
|-------2------2-|-2-2---2---2---2-|---2---2-------2-|-2-2---2---2---2-|
|---0---0-3--5---|-0-----0---0---0-|---------3p0-5---|-0-------------0-|
|----------------|-----------------|-----------------|-----------------|


  E E E E E E E E   E E E E E E E E   E E E E E E E E   E E E E E E E E
|-----------------|-----------------|-----------------|-----------------|
|-----------------|-----------------|-----------------|-----------------|
|-------2---2-2---|---2-------2---2-|---2---2-------2-|---2-------2---2-|
|---2-2-2-------2-|-2-2---2---2---2-|---2---2-------2-|-2-2---2---2---2-|
|---0-----3---5---|-0-----0---------|---0-----3p0-5---|-0-----0---------|
|-----------------|-----------------|-----------------|-----------------|


  E E E E E E E E   E E E E E E E E   E E E E E E E E   E E E E E E E E
|-----------------|-----------------|-----------------|-----------------|
|-----------------|-----------------|-----------------|-----------------|
|---2-------------|---2-----------2-|---2---2-------2-|---2---2---2---2-|
|---2---2-------2-|---2---2---2---2-|---2---2-------2-|-2-2---2---2---2-|
|-------0-3p0-5---|-0-----0---0---0-|---0-----3p0-5---|-0-----0---------|
|-----------------|-----------------|-----------------|-----------------|


  Gtr II
  W          E E E E E E E E   E E E E Q  E E   E E E E E E E E
|----------|-----------------|----------------|-----------------|
|----------|-----------------|----------------|-----------------|
|----------|-2-2---2---2---2-|---2---2--------|-2-2---2---2---2-|
|----------|-2-2---2---2---2-|---2---2--------|-2-2---2---2---2-|
|----------|-0-0---0---0---0-|---0---0-3--5-3-|-0-0---0---0---0-|
|----------|-----------------|----------------|-----------------|


  E E E E Q  E E   E E E E E E E E   E E E E Q  E E   E E E E E E E E
|----------------|-----------------|----------------|-----------------|
|----------------|-----------------|----------------|-----------------|
|---2---2--------|-2-2---2---2---2-|---2---2--------|-2-2---2---2---2-|
|---2---2--------|-2-2---2---2---2-|---2---2--------|-2-2---2---2---2-|
|---0---0-3--5-3-|-0-0---0---0---0-|---0---0-3--5-3-|-0-0---0---0---0-|
|----------------|-----------------|----------------|-----------------|


  E E E E Q  E E   E E E E E E E E   E E E E Q  E E   E E E E E E E E
|----------------|-----------------|----------------|-----------------|
|----------------|-----------------|----------------|-----------------|
|---2---2--------|-2-2---2---2---2-|---2---2--------|-2-2---2---2---2-|
|---2---2--------|-2-2---2---2---2-|---2---2--------|-2-2---2---2---2-|
|---0---0-3--5-3-|-0-0---0---0---0-|---0---0-3--5-3-|-0-0---0---0---0-|
|----------------|-----------------|----------------|-----------------|


  E E E E Q  E E   E E E E E E E E   E E E E Q  E E   E E E E E E E E
|----------------|-----------------|----------------|-----------------|
|----------------|-----------------|----------------|-----------------|
|---2---2--------|-2-2---2---2---2-|---2---2--------|-2-2---2---2---2-|
|---2---2--------|-2-2---2---2---2-|---2---2--------|-2-2---2---2---2-|
|---0---0-3--5-3-|-0-0---0---0---0-|---0---0-3--5-3-|-0-0---0---0---0-|
|----------------|-----------------|----------------|-----------------|


  E E E E Q  E E   E E E E E E E E   E E E E Q  E E   E E E E E E E E
|----------------|-----------------|----------------|-----------------|
|----------------|-----------------|----------------|-----------------|
|---2---2--------|-2-2---2---2---2-|---2---2--------|-2-2---2---2---2-|
|---2---2--------|-2-2---2---2---2-|---2---2--------|-2-2---2---2---2-|
|---0---0-3--5-3-|-0-0---0---0---0-|---0---0-3--5-3-|-0-0---0---0---0-|
|----------------|-----------------|----------------|-----------------|


  E E E E Q  E E   E E E E E E E E   E E E E Q  E E   E E E E E E E E
|----------------|-----------------|----------------|-----------------|
|----------------|-----------------|----------------|-----------------|
|---2---2--------|-2-2---2---2---2-|---2---2--------|-2-2---2---2---2-|
|---2---2--------|-2-2---2---2---2-|---2---2--------|-2-2---2---2---2-|
|---0---0-3--5-3-|-0-0---0---0---0-|---0---0-3--5-3-|-0-0---0---0---0-|
|----------------|-----------------|----------------|-----------------|


  Gtrs III, IV
              ~~~~~
                                   |--3---|  |--3---| |-3--|  |-3--|
  W           W                    E  E   E  E E    E E E  E  E E  E
|----------|---------------------|-8---------------------------------|
|----------|-11b13---------------|---11---8-11p8------8--------------|
|----------|---------------------|-----------------10---8----10-8----|
|----------|---------------------|------------------------10------10-|
|----------|---------------------|-----------------------------------|
|----------|---------------------|-----------------------------------|
|
| Gtr II
| W           E    E E E E E E E   E    E    E   E    Q       Q
|----------|---------------------|-----------------------------------|
|----------|---------------------|-----------------------------------|
|----------|--5----5---5---5---5-|------5--------5-------------------|
|----------|--5----5---5---5---5-|------5--------5-------------------|
|----------|--x----x---x---x---x-|------x--------x----6-------8------|
|----------|--8----8---8---8---8-|------8--------8-------------------|


                    |--3---|
   +S   E.    +Q    E  E   E  T T +S  E
|---------------------------------------|
|---------------------------------------|
|---------------------------------------|
|-(10)-10----(10)----------8------------|
|-------------------8h10-----10s8-(8)-6-|
|---------------------------------------|
|
|   E      E   E  E E    E    E       E
|---------------------------------------|
|---------------------------------------|
|---5------5------5------5------------5-|
|---5------5------5------5------------5-|
|---x------x------x------x------------x-|
|---8------8------8------8------------8-|


   ~~~
   Q.     E  E E  T T +S  E    E T  S.  +Q    Q      E E
|---------------------------|------------------------------|
|---------------------------|------------------------------|
|---------------------------|-----------------8b10---------|
|-10-----------8------------|-10-8h10--(10)----------------|
|---------8h10---10s8-(8)-6-|--------------------------8h==|
|---------------------------|------------------------------|
|
|  E  E E E  Q    Q            E E       E  E E    E E E
|---------------------------|------------------------------|
|---------------------------|------------------------------|
|-----5---5-----------------|--5-5----------5------5---5---|
|-----5---5-----------------|--5-5----------5------5---5---|
|-----x---x--6----8---------|--x-x----------x------x---x---|
|-----8---8-----------------|--8-8----------8------8---8---|


   E E  T T +S  E E E E E   Q   T  T  +S  E  T T +S  E E E
|-------------------------|--------------------------------|
|-------------------------|--------------------------------|
|-------------------------|--------------------------------|
|----8--------------------|---------------8----------------|
|-10---10p8-(8)-6-8-6-----|-----8h10-(10)---10p8-(8)-6-8-6-|
|---------------------8-6-|-8------------------------------|
|
|  E E  E       E Q   Q     E E E         E  E       E E E
|-------------------------|--------------------------------|
|-------------------------|--------------------------------|
|----5----------5---------|-5-5-----------5----------5---5-|
|----5----------5---------|-5-5-----------5----------5---5-|
|----x----------x-6---8---|-x-x-----------x----------x---x-|
|----8----------8---------|-8-8-----------8----------8---8-|


      ~~
   E  H        E  T  T  +E.
|---------------------------|
|---------------------------|
|----------------10s12-(12)-|
|-10-10-------10------------|
|---------------------------|
|---------------------------|
|
|  E  E E E Q     Q
|---------------------------|
|---------------------------|
|-----5---5-----------------|
|-----5---5-----------------|
|-----x---x-6-----8---------|
|-----8---8-----------------|


   |---3---|  |---3---|
   E  E    E  E  E    E  E   E  +S  E      S
|--------------------------------------------|
|-11------11----11------11------------------|
|----12------12------12-----10-(10)-8b9------|
|-----------------------------------------10-|
|--------------------------------------------|
|--------------------------------------------|
|
|  E    E     E    E     E   E   E      E
|--------------------------------------------|
|--------------------------------------------|
|--5----5----------5---------5----------5----|
|--5----5----------5---------5----------5----|
|--x----x----------x---------x----------x----|
|--8----8----------8---------8----------8----|


                             |--3--| |--3--| |--3--|
   +E  E  E E  E E E E   Q   E E   E E E   E E E   E
|----------------------|------------------------------|
|----------------------|------------------------------|
|----------------------|------------------------------|
|-(10)------8---------|------------------------------|
|------8h10----8-6-8-6-|-------------6-----6-8p6---8--|
|----------------------|-8---8-6h==8---8--------------|
|
|   E  E  E E  Q   Q     E E E   E   E   E   E   E
|----------------------|------------------------------|
|----------------------|------------------------------|
|------5----5----------|-5-5-----5-------5-------5----|
|------5----5----------|-5-5-----5-------5-------5----|
|------x----x--6---8---|-x-x-----x-------x-------x----|
|------8----8----------|-8-8-----8-------8-------8----|


                             ~~
  S  S E  E  E  Q  Q         Q    E  E  Q   Q
|-------------------------|------------------------|
|-------------------------|------------------------|
|------------------8b8.5--|-----------------8b10---|
|------8-10----10---------|-10---10----10----------|
|-8h10------10------------|---------10-------------|
|-------------------------|------------------------|
|
| E    E  E  E  Q  Q         E E  E  E  E E E    E
|-------------------------|------------------------|
|-------------------------|------------------------|
|------5-----5------------|--5-5-----5----5------5-|
|------5-----5------------|--5-5-----5----5------5-|
|------x-----x--6--8------|--x-x-----x----x------x-|
|------8-----8------------|--8-8-----8----8------8-|


      ~~~~
  Q   H         E  E   E    E E  E  +H
|--------------------|-------------------------|
|--------------------|-------------------------|
|-----8b10------8----|-8b10-8-8----------------|
|-----------------10-|----------10-(10)--------|
|--------------------|-------------------------|
|--------------------|-------------------------|
|
| E E E    E Q  Q      E    E E  E   E  E E E
|--------------------|-------------------------|
|--------------------|-------------------------|
|---5------5---------|-5----5----5------5---5--|
|---5------5---------|-5----5----5------5---5--|
|---x------x-6--8----|-x----x----x------x---x--|
|---8------8---------|-8----8----8------8---8--|


  E E  E  E  E  E  T  T  +S   E
|-------------------------------|
|--------11-11-11------------11-|
|---8s12----------10s12-(12)----|
|-------------------------------|
|-------------------------------|
|-------------------------------|
|
| E E  E  E  Q     Q
|-------------------------------|
|-------------------------------|
|---5-----5---------------------|
|---5-----5---------------------|
|---x-----x--6-----8------------|
|---8-----8---------------------|


                                     |--3---| |--3---| |--3--|
   E  E  E  E  T  T  +S  E  Q        E E    E E  E   E E  E  E  E E
|----------------------------------|---8----------------------------|
|-11-10s11-11----------------------|-8-----11p8------8--------------|
|-12-11s12----12s10-(10)-8-10b12---|------------10-----8----10-10-8-|
|----------------------------------|---------------------10---------|
|----------------------------------|--------------------------------|
|----------------------------------|--------------------------------|
|
|  E  E  E  E  E         E  E    E   E   E    E    E   Q        Q
|----------------------------------|--------------------------------|
|----------------------------------|--------------------------------|
|--5--5-----5------------5-------5-|-----5---------5----------------|
|--5--5-----5------------5-------5-|-----5---------5----------------|
|--x--x-----x------------x-------x-|-----x---------x---6--------8---|
|--8--8-----8------------8-------8-|-----8---------8----------------|


  S  S E  S  S E E E E E   Q    E E E E  E E
|------------------------|-------------------|
|------------------------|-------------------|
|------------------------|-------------------|
|------8-----------------|--------8-8-8----8-|
|-8h10---10-10-9s6-------|-----10-------10---|
|------------------8-8-6-|-8-----------------|
|
| E    E  E    E E E E E   E E  E E Q    Q
|------------------------|-------------------|
|------------------------|-------------------|
|-5----5-------5---5---5-|---5----5----------|
|-5----5-------5---5---5-|---5----5----------|
|-x----x-------x---x---x-|---x----x-6----8---|
|-8----8-------8---8---8-|---8----8----------|


   E  Q    E E  E  T  T  +S   +S   S
|-------------------------------------|
|---------------------------------11--|
|------------8----10s12-(12)-(12)-----|
|-10-10---10---10---------------------|
|-------------------------------------|
|-------------------------------------|
|
|  E  E E  E E  E  E           E
|-------------------------------------|
|-------------------------------------|
|--5--5----5----5--------------5------|
|--5--5----5----5--------------5------|
|--x--x----x----x--------------x------|
|--8--8----8----8--------------8------|


   |---3----|   |---3---|  |--3--|  |--3--|
   E  E    +E   E  E    E  E  E  E  E  E  E
|--------------------------------------------|
|----11---(11)----11------11----11----11h11-|
|-12-----------12------12----12----12--------|
|--------------------------------------------|
|--------------------------------------------|
|--------------------------------------------|
|
|  E    E       E    E     Q        Q
|--------------------------------------------|
|--------------------------------------------|
|-------5------------5-----------------------|
|-------5------------5-----------------------|
|-------x------------x-----6--------8--------|
|-------8------------8-----------------------|


                                        |---3----|   |---3---|  |--3--|  |--3--|
   E  Q    E E  E  T  T  +S   +S   S    E  E    +E   E  E    E  E  E  E  E  E  E
|------------------------------------|--------------------------------------------|
|---------------------------------11-|----11---(11)----11------11----11----11h11-|
|------------8----10s12-(12)-(12)----|-12-----------12------12----12----12--------|
|-10-10---10---10--------------------|--------------------------------------------|
|------------------------------------|--------------------------------------------|
|------------------------------------|--------------------------------------------|
|
|  E  E E  E E  E  E           E        E    E       E    E     Q        Q
|------------------------------------|--------------------------------------------|
|------------------------------------|--------------------------------------------|
|--5--5----5----5--------------5-----|-------5------------5-----------------------|
|--5--5----5----5--------------5-----|-------5------------5-----------------------|
|--x--x----x----x--------------x-----|-------x------------x-----6--------8--------|
|--8--8----8----8--------------8-----|-------8------------8-----------------------|


   |---3----|   |---3---|  |---3---|  |---3---|
   E  E    +E   E  E    E  E  E    E  E  E    E
|------------------------------------------------|
|----11---(11)----11------11------11----11h==11-|
|-12-----------12------12----12------12----------|
|------------------------------------------------|
|------------------------------------------------|
|------------------------------------------------|
|
|  E    E       E    E     E    E     E    E
|------------------------------------------------|
|------------------------------------------------|
|--5----5------------5----------5----------5-----|
|--5----5------------5----------5----------5-----|
|--x----x------------x----------x----------x-----|
|--8----8------------8----------8----------8-----|


                            ~~
                                     |---3----|   |---3---|
   E  E  E  E   E E  E E    H        E  E    +E   E  E    E
|------------------------|-----------------------------------|
|----11----11-----------|-------------11---(11)----11-------|
|-12----12-----10-8------|----------12-----------12------12--|
|-------------------10-8-|-10--------------------------------|
|------------------------|-----------------------------------|
|------------------------|-----------------------------------|
|
|  E  E  E  E   Q    Q      E E E E  E    E       E    E
|------------------------|-----------------------------------|
|------------------------|-----------------------------------|
|-----5-----5------------|--5-5---5-------5------------5-----|
|-----5-----5------------|--5-5---5-------5------------5-----|
|-----x-----x---6----8---|--x-x---x-------x------------x-----|
|-----8-----8------------|--8-8---8-------8------------8-----|


   |---3---|  |---3----|   |--3---|   |--3---|     |---3----|   |---3---|  |---3---|  |---3---|
   E  E    E  E  E    +E   E  E  +E   E  E  +E     E  E    +E   E  E    E  E  E    E  E  E    E
|-----------------------------------------------|------------------------------------------------|
|-11------11----11---(11)----11-(11)----11-(11)-|----11---(11)----11------11------11----11h==11-|
|----12------12-----------12---------12---------|-12-----------12------12----12------12----------|
|-----------------------------------------------|------------------------------------------------|
|-----------------------------------------------|------------------------------------------------|
|-----------------------------------------------|------------------------------------------------|
|
|  E    E     E    E       Q          Q            E    E       E    E     E    E     E    E
|-----------------------------------------------|------------------------------------------------|
|-----------------------------------------------|------------------------------------------------|
|-------5----------5----------------------------|--5----5------------5----------5----------5-----|
|-------5----------5----------------------------|--5----5------------5----------5----------5-----|
|-------x----------x-------6----------8---------|--x----x------------x----------x----------x-----|
|-------8----------8----------------------------|--8----8------------8----------8----------8-----|


   |---3----|   |---3----|   |--3---|   |--3---|
   E  E    +E   E  E    +E   E  E  +E   E  E  +E
|--------------------------------------------------|
|----11---(11)----11---(11)----11-(11)-11----------|
|-12-----------12-----------12------------12-(12)--|
|--------------------------------------------------|
|--------------------------------------------------|
|--------------------------------------------------|
|
|  E    E       E    E       Q          Q
|--------------------------------------------------|
|--------------------------------------------------|
|-------5------------5-----------------------------|
|-------5------------5-----------------------------|
|-------x------------x-------6----------8----------|
|-------8------------8-----------------------------|


                         ~~~~~~~~~~~~
   E  E  E  E   E E +S   E.      +Q.     E E E  E E
|-----------------------------|---------------------|
|-11-------11----------------|--------------8-10---|
|----10-12-----10-8-(8)-------|----------8h9--------|
|-----------------------10----|-(10)----------------|
|-----------------------------|---------------------|
|-----------------------------|---------------------|
|
|  E  E  E  E   E E  E      E     E  E E E Q    Q
|-----------------------------|---------------------|
|-----------------------------|---------------------|
|--5--5-----5-----5---------5-|------5---5----------|
|--5--5-----5-----5---------5-|------5---5----------|
|--x--x-----x-----x---------x-|------x---x-6----8---|
|--8--8-----8-----8---------8-|------8---8----------|


  H.        E    E   W
|-8h========8-----|----------------|
|------------------|----------------|
|------------------|----------------|
|------------------|----------------|
|------------------|----------------|
|------------------|----------------|
|
| |-3-| |--3---|     |-3-| |-3-|
| Q Q Q Q Q    Q     Q Q Q Q Q Q
|---5---5------5---|---5---5---5----|
|------------------|----------------|
|------------------|----------------|
|-5---5---5--------|-4---4---4------|
|------------------|----------------|
|------------------|----------------|

[ Tab from: http://www.guitartabs.cc/tabs/z/zz_top/la_grange_tab_ver_5.html ]
  Gtr II
                         ~~~~~~~~~
  |-3-| |-3-|                       |-3-| |-3-|   |-3-| |-3-|
  Q Q Q Q Q Q   E E T S. H    +E    Q Q Q Q Q Q   Q Q Q Q Q Q
|---5---5---5-|-------------------|---5---5---5-|---5---5---5-|
|-------------|-------------------|-------------|-------------|
|-------------|----------2----(2)-|-------------|-------------|
|-3---3---3---|-------------------|-5---5---5---|-4---4---4---|
|-------------|-0-0-3s4-----------|-------------|-------------|
|-------------|-------------------|-------------|-------------|


                                                              G   C
                                    Gtr I
                         ~~~~~~~~~
  |-3-| |-3-|
  Q Q Q Q Q Q   E E T S. H    +E    E E E E E E E E   E E E E E E E E
|---5---5---5-|-------------------|-----------------|------------------|
|-------------|-------------------|-----------------|------------------|
|-------------|----------2----(2)-|-2-2---2---2---2-|---2---------5----|
|-3---3---3---|-------------------|-2-2---2---2---2-|---2-----5---2----|
|-------------|-0-0-3s4-----------|-----------------|-------0-0-0---0--|
|-------------|-------------------|-----------------|------------------|


  A5                            G   C
  E     E E E E E E E   E E E E E E E E
|---------------------|-----------------|
|---------------------|-----------------|
|-5b5.5-2---2---2---2-|---2-----2---5---|
|-2-----2---2---2---2-|---2---2-5-2-2---|
|---------------------|-------0---0---0-|
|---------------------|-----------------|


  A5                            G   C
  E     E E E E E E E   E E E E E E E E
|---------------------|-----------------|
|---------------------|-----------------|
|-5b5.5-2---2---2---2-|---2-----2---5---|
|-2-----2---2---2---2-|---2-----5---2---|
|-------------------0-|---0---0---0---0-|
|---------------------|-----------------|


                               Gtr II
  E E E E E E E E   W          E E E E E E E E   E E E E Q  E E
|-----------------|----------|-----------------|----------------|
|-----------------|----------|-----------------|----------------|
|---2---2---2---2-|----------|-2-2---2---2---2-|---2---2--------|
|-2-2---2---2---2-|----------|-2-2---2---2---2-|---2---2--------|
|-0-----0---------|----------|-0-0---0---0---0-|---0---0-3--5-3-|
|-----------------|----------|-----------------|----------------|


  Gtrs III, IV
  W                 W
|-----------------|----------------|
|-----------------|----------------|
|-----------------|----------------|
|-----------------|----------------|
|-----------------|----------------|
|-----------------|----------------|
|
| Gtr II
| E E E E E E E E   E E E E Q  E E
|-----------------|----------------|
|-----------------|----------------|
|-2-2---2---2---2-|---2---2--------|
|-2-2---2---2---2-|---2---2--------|
|-0-0---0---0---0-|---0---0-3--5-3-|
|-----------------|----------------|


                                            ~
      |--3--|
  E E E E   E E E Q     E Q.       +E   E E E
|---------------------|-----------------------|
|---------------------|-----------------------|
|-----5---------------|---7b9======(7)r---5---|
|---7---7p==5h7-------|---------------------7-|
|---------------------|-----------------------|
|---------------------|-----------------------|
|
| E E E   E   E E E E   E E    E E  Q     E E
|---------------------|-----------------------|
|---------------------|-----------------------|
|-2-2-----2-----2---2-|---2------2------------|
|-2-2-----2-----2---2-|---2------2------------|
|-0-0-----0-----0---0-|---0------0--3-----5-3-|
|---------------------|-----------------------|


   ~~~
  +W                  E  E       +Q      H
|-------------------|------------------------------|
|-------------------|---[8]b10==([8])r---8b10------|
|-------------------|------------------------------|
|-(7)---------------|------------------------------|
|-------------------|------------------------------|
|-------------------|------------------------------|
|
|  E  E E E E E E E   E  E        E    E Q     E E
|-------------------|------------------------------|
|-------------------|------------------------------|
|--2--2---2---2---2-|----2-------------2-----------|
|--2--2---2---2---2-|----2-------------2-----------|
|--0--0---0---0---0-|----0-------------0-3-----5-3-|
|-------------------|------------------------------|


       ~~~~~~~~~~~~~~~~~~~             ~~~~~~~~~~~~~
                       |--3---|                      |----3-----|
  E    Q.       +Q    +E  E   E   E    Q.       +Q   E    +E    E
|-------------------------------|---------------------------------|
|-8b10-8b10r====(8)---(8)-8p==5-|-8b10-8b10r====(8)--8b10r(8)---5-|
|-------------------------------|---------------------------------|
|-------------------------------|---------------------------------|
|-------------------------------|---------------------------------|
|-------------------------------|---------------------------------|
|
| E    E    E E  E  E  E    E     E    E    E E  Q   E        E
|-------------------------------|---------------------------------|
|-------------------------------|---------------------------------|
|-2----2------2-----2-------2---|------2------2-------------------|
|-2----2------2-----2-------2---|------2------2-------------------|
|-0----0------0-----0-------0---|------0------0--3---5--------3---|
|-------------------------------|---------------------------------|


                                    ~
  |----3----|     |----3----|
  Q   Q     Q     Q     Q   Q       H       E E  Q
|---------------------------------|----------------------|
|-8-------------------------------|----------------------|
|-----7b9---7b9---5b7---7---5b7---|-----------5-[7]b9====|
|---------------------------------|-7--------------------|
|---------------------------------|----------------------|
|---------------------------------|----------------------|
|
| E E     E     E E   E   E     E   E E E E Q    E     E
|---------------------------------|----------------------|
|---------------------------------|----------------------|
|-2-2-----------2-----2---------2-|---2---2--------------|
|-2-2-----------2-----2---------2-|---2---2--------------|
|-0-0-----------0-----0---------0-|---0---0-3----5-----3-|
|---------------------------------|----------------------|


                                         ~~~~~~
   +Q      E E E E   E E      +Q     E   E +Q   E E
|---------------------------|--------------------------|
|----------5-8--------------|--------------------------|
|-([7])r---------7b9-7-5b7==|=(5)r---5b7--------5-7b9==|
|---------------------------|------------7-(7)---------|
|---------------------------|--------------------------|
|---------------------------|--------------------------|
|
|   E    E E E E E   E E       E   E E   E  Q   E E
|---------------------------|--------------------------|
|---------------------------|--------------------------|
|---2----2---2---2-----2----|------2-----2-------------|
|---2----2---2---2-----2----|------2-----2-------------|
|---0----0---0---0-----0----|------0-----0--3---5-3----|
|---------------------------|--------------------------|


   |-----3-----|     |-----3-----|
  +Q     Q     Q     Q     Q     Q       Q     Q   +E  E E E
|--------------------------------------|---------------------|
|--------------------------------------|---------------------|
|-(7)r---7b9---7b9---7b9---7b9---7b9---|-7b9---5---(5)-6-----|
|--------------------------------------|-----------------7-5-|
|--------------------------------------|---------------------|
|--------------------------------------|---------------------|
|
|  E   E     E     E E   E     E     E   E   E E E  Q    E E
|--------------------------------------|---------------------|
|--------------------------------------|---------------------|
|--2---2-----------2-----2-----------2-|-----2---2-----------|
|--2---2-----------2-----2-----------2-|-----2---2-----------|
|--0---0-----------0-----0-----------0-|-----0---0--3----5-3-|
|--------------------------------------|---------------------|


                                       |----3-----|
  E E E  E    Q   E E      +H          E     +E   E E E
|------------------------|----------------------------------|
|------------------------|----------------------------------|
|-------[5]b7-7---5-7b9==|=(7)r-------[7]b9r([7])-5-7-5b7===|
|-7-7--------------------|----------------------------------|
|------------------------|----------------------------------|
|------------------------|----------------------------------|
|
| E E E  E    E E E E       E   E E E  Q            E E
|------------------------|----------------------------------|
|------------------------|----------------------------------|
|-2-2----2------2---2----|------2---2-----------------------|
|-2-2----2------2---2----|------2---2-----------------------|
|-0-0----0------0---0----|------0---0--3------------5-3-----|
|------------------------|----------------------------------|


           ~~~~~~~~~~~~~~~~~~
  +Q     E E +H          +Q    E E   H
|----------------------|------------------------|
|----------------------|---------8-[10]b12------|
|-(5)r---5-------------|-------9----------------|
|----------7-(7)-------|-(7)--------------------|
|----------------------|------------------------|
|----------------------|------------------------|
|
|  E   E E E  E  E E E    E  E E E   Q      E E
|----------------------|------------------------|
|----------------------|------------------------|
|--2---2---2-----2---2-|-----2---2--------------|
|--2---2---2-----2---2-|-----2---2--------------|
|--0---0---0-----0---0-|-----0---0---3------5-3-|
|----------------------|------------------------|


  Q    E  E  +Q    Q        +Q     E   E    +Q    E E
|------------------8b9====|=(8)r---8------------------|
|-8---10-10-(10)---8------|-(8)------[10]-([10])------|
|-------------------------|-----------------------7s9-|
|-------------------------|---------------------------|
|-------------------------|---------------------------|
|-------------------------|---------------------------|
|
| E E  E  E   E  E E    E    E   E E   E     Q    E E
|-------------------------|---------------------------|
|-------------------------|---------------------------|
|-2-2-----2------2------2-|------2-----2--------------|
|-2-2-----2------2------2-|------2-----2--------------|
|-0-0-----0------0------0-|------0-----0-----3----5-3-|
|-------------------------|---------------------------|


                              ~~
  |---3---|   |----3----|              |-3-| |--3--|
  Q   Q   Q   Q     Q   Q     Q.     E E E E E E   E
|---------------------------|----------------------5-|
|-8-------------------------|----------------8p7-----|
|-----7---5---7b9---7---5---|--------------5---------|
|---------------------------|-7-------5h7-----------|
|---------------------------|------------------------|
|---------------------------|------------------------|
|
| E E   E   E E   E   E   E   E  E E E Q     E   E
|---------------------------|------------------------|
|---------------------------|------------------------|
|-2-2-------2-----2-------2-|----2---2---------------|
|-2-2-------2-----2-------2-|----2---2---------------|
|-0-0-------0-----0-------0-|----0---0-3-----5---3---|
|---------------------------|------------------------|


  Q    Q        Q     Q       E E E     E E   +E  Q
|---------------------------|-------------------------------|
|-7---[5]b5.5---------------|-------------------------------|
|---------------7b9---5b7---|-------------------------------|
|---------------------------|-7---5b5.5-7-------------------|
|---------------------------|---7---------5b7r(5)-3b3.5-----|
|---------------------------|-------------------------------|
|
| E E  E      E E   E E   E   E E E     E Q       E     E
|---------------------------|-------------------------------|
|---------------------------|-------------------------------|
|-2-2---------2-----2-----2-|---2-------2-------------------|
|-2-2---------2-----2-----2-|---2-------2-------------------|
|-0-0---------0-----0-----0-|---0-------0-3-------5-----3---|
|---------------------------|-------------------------------|


  E E Q       E E E     E   Q    E      E E   +E   E      E
|-------------------------|---------------------------------|
|-------------------------|---------------------------------|
|-------------------------|-----[5]b5.5---7b9r(7)-[5]b5.5---|
|-------------------------|-7-----------7-----------------7-|
|-5---3b3.5---5---3b3.5---|---------------------------------|
|---5-----------5---------|---------------------------------|
|
| E E E     E E E E     E   E E  E      E Q        E      E
|-------------------------|---------------------------------|
|-------------------------|---------------------------------|
|-2-2-------2---2-------2-|---2---------2-------------------|
|-2-2-------2---2-------2-|---2---------2-------------------|
|-0-0-------0---0-------0-|---0---------0-3--------5------3-|
|-------------------------|---------------------------------|


  E  E      Q   E E Q        Q       Q       Q      Q
|-------------------------|--------------------------------|
|-------------------------|--------------------------------|
|-7-[5]b5.5-7---5---7b9---|-[7]b9---[7]b9---[7]b9--[7]b9---|
|---------------5---------|--------------------------------|
|-----------------7-------|--------------------------------|
|-------------------------|--------------------------------|
|
| E  E      E E E E E   E    E    E  E    E  Q      E    E
|-------------------------|--------------------------------|
|-------------------------|--------------------------------|
|-2--2--------2---2-----2-|-------2-------2----------------|
|-2--2--------2---2-----2-|-------2-------2----------------|
|-0--0--------0---0-----0-|-------0-------0--3------5----3-|
|-------------------------|--------------------------------|


   Q       Q       Q       Q         Q       Q       Q      Q
|---------------------------------|--------------------------------|
|---------------------------------|--------------------------------|
|-[7]b9---[7]b9---[7]b9---[7]b9---|-[7]b9---[7]b9---[7]b9--[7]b9---|
|---------------------------------|--------------------------------|
|---------------------------------|--------------------------------|
|---------------------------------|--------------------------------|
|
|  E    E  E    E  E    E  E    E    E    E  E    E  Q      E    E
|---------------------------------|--------------------------------|
|---------------------------------|--------------------------------|
|--2----2-------2-------2-------2-|-------2-------2----------------|
|--2----2-------2-------2-------2-|-------2-------2----------------|
|--0----0-------0-------0-------0-|-------0-------0--3------5----3-|
|---------------------------------|--------------------------------|


   Q       Q       Q       Q         Q      Q     Q    E   E
|---------------------------------|--------------------------|
|---------------------------------|--------------------------|
|-[7]b9---[7]b9---[7]b9---[7]b9---|-[7]b9---7b9---7b9--7b9-5-|
|---------------------------------|--------------------------|
|---------------------------------|--------------------------|
|---------------------------------|--------------------------|
|
|  E    E  E    E  E    E  E    E    E    E E   E Q    E   E
|---------------------------------|--------------------------|
|---------------------------------|--------------------------|
|--2----2-------2-------2-------2-|-------2-----2------------|
|--2----2-------2-------2-------2-|-------2-----2------------|
|--0----0-------0-------0-------0-|-------0-----0-3----5---3-|
|---------------------------------|--------------------------|


      ~                    ~~~
              |--3--|
  Q   H       E E   E   E  Q.      Q    Q
|---------------------|-5--------------------|
|-------------------5-|---10------10--[10]---|
|-------------5h6-----|----------------------|
|-7---7---------------|----------------------|
|---------------------|----------------------|
|---------------------|----------------------|
|
| E E E E E E E   E     E  E  E E  Q    E  E
|---------------------|----------------------|
|---------------------|----------------------|
|-2-2---2---2-----2---|----2----2------------|
|-2-2---2---2-----2---|----2----2------------|
|-0-0---0---0-----0---|----0----0--3----5--3-|
|---------------------|----------------------|


                                    ~~
                                        |-3-| |--3--|
   H             Q     Q       Q    Q   E E E E E   E
|-[8]b8.5-------[8]---[8]---|--------------------------|
|-[8]b8.5-------------------|-10---10---8p5------------|
|---------------------------|---------------7-5h7---5--|
|---------------------------|--------------------------|
|---------------------------|--------------------------|
|---------------------------|--------------------------|
|
|  E      E E E  E  E  E  E    E E  E E Q     E   E
|---------------------------|--------------------------|
|---------------------------|--------------------------|
|--2------2---2-----2-----2-|----2----2----------------|
|--2------2---2-----2-----2-|----2----2----------------|
|--0------0---0-----0-----0-|----0----0-3-----5---3----|
|---------------------------|--------------------------|


  ~~                       ~~~~~~~~~~~
               |--3--|
  H.           E E   E   E Q.     +E  E E  E
|----------------------|-5-------------------|
|--------------------5-|-5-8------(8)------8-|
|--------------5h6-----|----------------9--9-|
|-7--------------------|------------------10-|
|----------------------|---------------------|
|----------------------|---------------------|
|
| E  E E E E E E   E     E E  E E  Q    E  E
|----------------------|---------------------|
|----------------------|---------------------|
|-2--2---2---2-----2---|---2----2------------|
|-2--2---2---2-----2---|---2----2------------|
|-0--0---0---0-----0---|---0----0--3----5--3-|
|----------------------|---------------------|


                             |-3-|
  Q   E  E Q   E E   E E E E E E E E E
|-8--------8-------|--------------------|
|-8--------8---7-5-|-5-5----------------|
|-9------9-9---7-5-|-5-5----------------|
|-------10---------|-----7-5------------|
|------------------|---------7-6-5------|
|------------------|---------------8-8--|
|
| E E E  E E E E E   E E E E Q     E E
|------------------|--------------------|
|------------------|--------------------|
|-2-2----2---2---2-|---2---2------------|
|-2-2----2---2---2-|---2---2------------|
|-0-0----0---0---0-|---0---0-3-----5-3--|
|------------------|--------------------|


  E E E E Q   E E   +E  H         +E  E  E
|---7s8s7-8-------|---------------------------|
|---7s8s7-8-------|---------------------------|
|---8s9s8-9---7-5-|-(5)-7b9r======(7)-5-[7]b9-|
|-----------------|---------------------------|
|-----------------|---------------------------|
|-5---------------|---------------------------|
|
| E E E E E E E E    E  E   E E Q     E  E
|-----------------|---------------------------|
|-----------------|---------------------------|
|-2-2---2---2---2-|-----2-----2---------------|
|-2-2---2---2---2-|-----2-----2---------------|
|-0-0---0---0---0-|-----0-----0-3-----5--3----|
|-----------------|---------------------------|


                                                                     ~
                                     |-------3-------|
   Q       Q       Q       Q         Q       Q       Q       Q     E E
|---------------------------------|------------------------------------|
|---------------------------------|------------------------------------|
|-[7]b9---[7]b9---[7]b9---[7]b9---|-[7]b9---[7]b9---[7]b9---[7]b9--5---|
|---------------------------------|----------------------------------7-|
|---------------------------------|------------------------------------|
|---------------------------------|------------------------------------|
|
|  E    E  E    E  E    E  E    E    E    E       E       E  Q     E E
|---------------------------------|------------------------------------|
|---------------------------------|------------------------------------|
|--2----2-------2-------2-------2-|-------2---------------2------------|
|--2----2-------2-------2-------2-|-------2---------------2------------|
|--0----0-------0-------0-------0-|-------0---------------0--3-----5-3-|
|---------------------------------|------------------------------------|


   ~~~
  +E  E E E  E E E E    H       +E  E E E
|---------------------|-----------------7/-|
|---------------------|-----------------7/-|
|---------------------|-----------------8/-|
|-(7)-----5----------|-7-------(7)--------|
|-----5h7----5---5----|--------------------|
|--------------8---8/-|--------------------|
|
|  E  E E E  E E E E    E E E E  Q    E E
|---------------------|--------------------|
|---------------------|--------------------|
|--2--2---2----2---2--|---2---2------------|
|--2--2---2----2---2--|---2---2------------|
|--0--0---0----0---0--|---0---0--3----5-3--|
|---------------------|--------------------|


  Q   Q   Q   E E   +E  E E E Q  E E
|-8---8---8-------|----------------7/-|
|-8---8---8---7-5-|-(5)------------7/-|
|-9---9---9---7-5-|-(5)-2---2------8/-|
|-----------------|-----2-2---2-------|
|-----------------|-------0-----------|
|-----------------|-------------------|
|
| E E E E E E E E    E  E E E Q  E E
|-----------------|-------------------|
|-----------------|-------------------|
|-2-2---2---2---2-|-----2---2---------|
|-2-2---2---2---2-|-----2---2---------|
|-0-0---0---0---0-|-----0---0-3--5-3--|
|-----------------|-------------------|


  Q   Q   Q   E E   +Q    E E Q  E E    Q   Q   Q   E E   +E  E E E +Q   E E
|-8---8---8-------|----------------7/-|-8---8---8-------|---------------------|
|-8---8---8---7-5-|-(5)------------7/-|-8---8---8---7-5-|-(5)-----------------|
|-9---9---9---7-5-|-(5)-----2------8/-|-9---9---9---7-5-|-(5)-2-2-2-(2)----7/-|
|-----------------|-------2---2-------|-----------------|-----2---------------|
|-----------------|-------------------|-----------------|---------------------|
|-----------------|-------------------|-----------------|---------------------|
|
| E E E E E E E E    E  E E E Q  E E    E E E E E E E E    E  E E E  Q   E E
|-----------------|-------------------|-----------------|---------------------|
|-----------------|-------------------|-----------------|---------------------|
|-2-2---2---2---2-|-----2---2---------|-2-2---2---2---2-|-----2---2-----------|
|-2-2---2---2---2-|-----2---2---------|-2-2---2---2---2-|-----2---2-----------|
|-0-0---0---0---0-|-----0---0-3--5-3--|-0-0---0---0---0-|-----0---0--3---5-3--|
|-----------------|-------------------|-----------------|---------------------|


  E E Q   Q   E E   +Q    E E Q  Q      Q   Q   E E E E
|-----8---8-------|--------------7/---|-8---8---8---8---*|
|-----8---8---7-5-|-(5)----------7/---|-8---8-------8---*|
|-9-9-9---9---7-5-|-(5)----------8/---|-9---9-----9-9-9-*|
|-----------------|-------7-7-7-------|-----------------*|
|-----------------|-------------------|-----------------*|
|-----------------|-------------------|-----------------*|
|
| E E E E E E E E    E  E E E Q  E  E   E E E E E E E E
|-----------------|-------------------|-----------------*|
|-----------------|-------------------|-----------------*|
|-2-2---2---2---2-|-----2---2---------|-2-2---2---2---2-*|
|-2-2---2---2---2-|-----2---2---------|-2-2---2---2---2-*|
|-0-0---0---0---0-|-----0---0-3--5--3-|-0-0---0---0---0-*|
|-----------------|-------------------|-----------------*|


Duration Legend
---------------
W - whole; H - half; Q - quarter; E - 8th; S - 16th; T - 32nd; X - 64th; a - acciaccatura
+ - note tied to previous; . - note dotted; .. - note double dotted
Uncapitalized letters represent notes that are staccato (1/2 duration)
Irregular groupings are notated above the duration line
Duration letters will always appear directly above the note/fret number it represents the
duration for.  Duration letters with no fret number below them represent rests.  Multi-
bar rests are notated in the form Wxn, where n is the number of bars to rest for.  Low
melody durations appear below the staff

Tablature Legend
----------------
 h   - hammer-on
 p   - pull-off
 b   - bend
 pb  - pre-bend
 r   - bend release (if no number after the r, then release immediately)
 /  - slide into or out of (from/to "nowhere")
 s   - legato slide
 S   - shift slide
  - natural harmonic
[n]  - artificial harmonic
n(n) - tapped harmonic
 ~   - vibrato
 tr  - trill
 T   - tap
 TP  - trem. picking
 PM  - palm muting
n/  - tremolo bar dip; n = amount to dip
 n  - tremolo bar down
 n/  - tremolo bar up
/n  - tremolo bar inverted dip
 =   - hold bend; also acts as connecting device for hammers/pulls
   - volume swell (louder/softer)
 x   - on rhythm slash represents muted slash
 o   - on rhythm slash represents single note slash

Misc Legend
-----------
 |  - bar
||  - double bar
||o - repeat start
o|| - repeat end
*|  - double bar (ending)
 :  - bar (freetime)
 $  - Segno
 &  - Coda
Tempo markers -  = BPM(8/16=s8/s16), where s8 = swing 8ths, s16 = swing 16ths


***************************************************************************************
* Generated using Power Tab Editor by Brad Larsen - http://powertab.guitarnetwork.org *
***************************************************************************************
Comments