Zz Top - La Grange Chords & Tabs

 

La Grange Chords & Tabs

Zz Top Chords & Tabs

Version: 3 Type: Tab 5 ratings
1 star 2 stars 3 stars 4 stars 5 stars
comments

La Grange Tab

   
Song:       La Grange
Artist:     ZZ Top
Tabbed For: Electric Guitar
Tabbed By:  Tim Fehr

Ok nobody in the world that I have found has tabbed this song before,
and now that I did I see why. Anyway, it took me almost three hours so
please don’t complain too loudly about all the errors’n’stuff k?

You’ll have to get the timing on your own cuz I really suck at writing it.
(the words start on the second round of riff 1)
Intro: (1st guitar)
      |--------Riff 1--------|                          
E-----|----------------------|---------------------------|---------------------------|
B-----|------------------1---|-----------------------1---|-----------------------1---|    
G-2-2—|-2-2-2-2--2-0-2-2---2-|-2-2—-2-2-2-2--2-0-2-2---2-|-2-2—-2-2-2-2--2-0-2-2---2-|  
D-2-2—|-2-2-2-2—-2-0-2-2-----|-2-2—-2-2-2-2—-2-0-2-2-----|-2-2—-2-2-2-2—-2-0-2-2-----|    
A-----|----------------------|---------------------------|---------------------------|    
E-----|----------------------|---------------------------|---------------------------|    
                                                                Rumour spreadin' ‘round, 
 |-------Riff 2-------|           
E------------------------------------------------------------------------------------|
B------------------------------------------------------------------------------------|
G-2-2-2-2--2—-2-2-2-2--2-2-2-2--2—-2-2-2-2--2-2-2-2--2—-2-2-2-2--2-2-2-2--2--2-2-2-2-|
D-2-2-2-2--2---0-------2-2-2-2--2---0-------2-2-2-2--2---0-------2-2-2-2--2---0------|X2
A------------3----2---------------3----2---------------3----2---------------3----2---|
E------------------------------------------------------------------------------------|       
       in that Texas town.          'bout that shack outside La Grange 
       and you know what I'm talkin' ‘bout. Just let me know if you wanna go 
E------------------------------------------------------------------------------------|
B------------------------------------------------------------------------------------|
G-2-2-2-2--2—-2-2-2-2--2-2-2-2--2—-2-2-2-2--2-2-2-2--2—-2-2-2-2--2-2-2-2-------------|
D-2-2-2-2--2---0-------2-2-2-2--2---0-------2-2-2-2--2---0-------2-2-2-2-------------|
A------------3----2---------------3----2---------------3----2------------------------|
E------------------------------------------------------------------------------------|       
       to that home out on the range. They gotta lotta nice girls.
E------------------------------------------------------------------------|
B------------------------------------------------------------------------|
G----------------7-----------------7-----------------7-----------------7-|
D-7--7-7-7-7—-10-7--7--7-7-7-7—-10-7--7--7-7-7-7—-10-7--7--7-7-7-7—-10-7-|X3
A-7-—7-7-7-7--10-5--7-—7-7-7-7--10-5--7-—7-7-7-7--10-5--7-—7-7-7-7--10-5-|
E-5--5—5-5-5—-8-----5--5—5-5-5—-8-----5--5—5-5-5—-8-----5--5—5-5-5—-8----| 
              Have mercy.     A haw, haw, haw, haw, a haw. A haw, haw, haw.
Well, I hear it's fine if you got the time and the ten to get yourself in. A hmm, hmm.
And I hear it's tight most ev'ry night, but now I might be mistaken. hmm, hmm, hmm, hmm.

Solo: (2nd guitar)
E-8---8p6h8----------------------------------------------------------|
B----------8p6h8-----------------------------------------------------|
G---------------8p5h8------5-5-----5----5-5-----------5-5-8b---------|
D--------------------8p5h8-----5h8--------------5------------------5-|
A------------------------------------8-6----6h8---8-6----------6h8---|
E--------------------------------------------------------------------|
            Have mercy.
E---------------------------------------6-6-6-6--------------------|
B-----------------------------------6-8-—8-8-8—6b7-----------------|
G-------------------------------5-5--------------8-5---------------|
D---------------------5----------------------------------5---------|
A-8-6-8-6---------6h8---8-6-8-6----------------------6h8---8-6-8-6-|
E---------8-6-8-8--------------------------------------------------|

E----------------------------------------------------------------6-66-|
B-------------------------------------------------6-6-6--6-----8------|
G---------------------------5-5-5-5-8b5-5-5-8b-10-------8—-8-5--------|
D---------------------5---5---8---------------------------------------|
A---------6---6-8-6-8---8---------------------------------------------|
E-8-8p6h8---8---------------------------------------------------------|
[ Tab from: http://www.guitartabs.cc/tabs/z/zz_top/la_grange_tab_ver_3.html ]
E---6-66-6-66-66-6----------6p3h6---------------------------------|
B-8----8-----------6---6-8b------6p3h6----------------------------|
G--------------------8-------------------------------------5-5-8b-|
D-------------------------------------8p6------------6------------|
A----------------------------------------8p6-----6h8---6----------|
E---------------------------------------------88---------8--------|

E---------------------------------------------------------------------|
A-------11-11-11-11-11-------11-11-11-11-11-------11-11-11-11-11------|
G-10b12—-12-12-12-12-12b10b12-12-12-12-12-12b10b12-12-12-12-12-12b10b-|
D---------------------------------------------------------------------|
A---------------------------------------------------------------------|
E---------------------------------------------------------------------|

E------------------------------------------------------------------|
A---11-11-11-11-11-------11-11-11-----------------11-11-11-11-11---|
G-12-12-12-12-12-12b10b12-12-12-12-10b12-8—-8-10b12-12-12-12-12-12b|
D-----------------------------------------10-----------------------|
B------------------------------------------------------------------|
E------------------------------------------------------------------|

E----------------------------------------------------------|
A-----11-11-11-------11-11-11-11-11-------11-11-11---------|
G-10b12-12-12-12b10b12-12-12-12-12-12b10b12-12-12-12b10b12-|
D----------------------------------------------------------|
B----------------------------------------------------------|
E----------------------------------------------------------|

E---------------------------------------8-(hold)-|
A-11---11---11—-11-------------------------------|
G—10b12-10b12-12-—10b12b10-8-------8-10----------|
D----------------------------10-10---------------|
B------------------------------------------------|
E------------------------------------------------|

Bridge: (1st guitar)
E||------------------------------------------------------||
A||o---10---10---10---10---10---10---10---10------------o||
G||------------------------------------------------------||
D||------------------------------------------------------||X2
B||o12---12---12---10---10---10----9----9----9--------12o||
E||---------------------------------------------5-5-9/---||

E-----|----------------------|---------------------------|---------------------------|
B-----|------------------1---|-----------------------1---|-----------------------1---|    
G-2-2—|-2-2-2-2--2-0-2-2---2-|-2-2—-2-2-2-2--2-0-2-2---2-|-2-2—-2-2-2-2--2-0-2-2---2-|  
D-2-2—|-2-2-2-2—-2-0-2-2-----|-2-2—-2-2-2-2—-2-0-2-2-----|-2-2—-2-2-2-2—-2-0-2-2-----|    
A-----|----------------------|---------------------------|---------------------------|    
E-----|----------------------|---------------------------|---------------------------|    



E---------------------|---------------------------------------|
A---------------------|---------------------------------------|1st guitar continues
G-2-2-2-2-------------|----------------7-----------------7----|with riff 2 while 2nd
D-2-2-2-2-------------|-7--7-7-7-7—-10-7--7--7-7-7-7—-10-7--7-|guitar plays solo below
B---------------------|-7-—7-7-7-7--10-5--7-—7-7-7-7--10-5—-7-|
E---------------------|-5--5—5-5-5—-8-----5--5—5-5-5—-8-----5-|

Solo: (2nd guitar)
E------------------------------------------------------|
A----------------10-10---10-10-10p8-8-10-10p8-8--------|
G----------7b5---------------------9---------9-9-7-9---|
D-7p5------------------------------------------------7-|
B---h7-------------------------------------------------|
E------------------------------------------------------|

E--------------------------8b---------------------|
A-8b-8b-8b-10b-8b---------------------------10-10-|
G-----------------9b-9b-9b---9b-9b-9b-------9-----|
D-------------------------------------7-7h9-------|
B-------------------------------------------------|
E-------------------------------------------------|
           
E-b22-21-21-21--------------------------------------------------------|
A-------------8-10p8--------------------10-8---5-5—-5-5-1-----1-3-3-3-|
G--------------------9p7------------7-9--------5-5—-5—5-2-2-2-2-------|
D------------------------10p9p7-7-9---------------------2----00-------|
B---------------------------------------------------------------------|
E---------------------------------------------------------------------|
                           (start fading out)
E--------------------------|
A------5b-5b-5b5b5b--------|
G-h5p2-------------5p4p2-2-|
D--------------------------|
B--------------------------|
E--------------------------|

Any comments, questions or maybe even changes (which I highly doubt) send
em to corporal_chowderhead@hotmail.com (and yes that is my real address
Comments