Zz Top - Just Got Paid Chords & Tabs

 

Just Got Paid Chords & Tabs

Zz Top Chords & Tabs

Version: 2 Type: Tab 1 rating
1 star 2 stars 3 stars 4 stars 5 stars
comments

Just Got Paid Tab

Just Got Paid
by ZZ Top
(rhythm guitar)

Intro
|---------------------------------------------------------------------|
|---------------------------------------------------------------------|
|---------------------------------------------------------------4s3s2-|
|-0h2---5---2---0---2p0---2-0-2-5-2-0-2p0---2-2-0-2-5-2-0-2p0---------|
|---------------------------------------------------------------------|
|-----0---0---0---0-----0-----------------0-------------------0-------|

Song
|-----------------------------------------------------------------------------------|
|-----------------------------------------------------------------------------------|
|-----------------------------------------------------------------------------------|
|-0h2---5---2---0---2p0---2---0h2---5---2---0---2p0---2---0h2---5---2---0---2p0---2-|
|-----------------------------------------------------------------------------------|
|-----0---0---0---0-----0---------0---0---0---0-----0---------0---0---0---0-----0---|

|-----------------------------------------------------------------------------------|
|-----------------------------------------------------------------------------------|
|-----------------------------------------------------------------------------------|
|-0h2---5---2---0---2p0---2---0h2---5---2---0---2p0---2---0h2---5---2---0---2p0---2-|
|-----------------------------------------------------------------------------------|
|-----0---0---0---0-----0---------0---0---0---0-----0---------0---0---0---0-----0---|

|-------------------------------------------------------------------------------------------------------|
|-9-9---9-9---7-7---7-7-----------------------------------------------------------9-9---9-9---7-7---7-7-|
|-9-9---9-9---7-7---7-7-----------------------------------------------------------9-9---9-9---7-7---7-7-|
|-9-9---9-9---7-7---7-7---0h2---5---2---0---2p0---2---0h2---5---2---0---2p0---2---9-9---9-9---7-7---7-7-|
|-------------------------------------------------------------------------------------------------------|
|-----------------------------0---0---0---0-----0---------0---0---0---0-----0---------------------------|
[ Tab from: http://www.guitartabs.cc/tabs/z/zz_top/just_got_paid_tab_ver_2.html ]
|---------------------------------------------------------3---3---3---3---5---5---5---5-|
|---------------------------------------------------------3---3---3---3---5---5---5---5-|
|---------------------------------------------------------4---4---4---4---6---6---6---6-|
|-0h2---5---2---0---2p0---2---0h2---5---2---0---2p0---2---5---5---5---5---7---7---7---7-|
|---------------------------------------------------------5---5---5---5---7---7---7---7-|
|-----0---0---0---0-----0---------0---0---0---0-----0-----3---3---3---3---5---5---5---5-|

|-------------------------------------------------------------------------------|
|---------------------------------------------------------9-9---9-9---7-7---7-7-|
|---------------------------------------------------------9-9---9-9---7-7---7-7-|
|-0h2---5---2---0---2p0---2---0h2---5---2---0---2p0---2---9-9---9-9---7-7---7-7-|
|-------------------------------------------------------------------------------|
|-----0---0---0---0-----0---------0---0---0---0-----0---------------------------|

|-------------------------------------------------------------------------------|
|---------------------------------------------------------9-9---9-9---7-7---7-7-|
|---------------------------------------------------------9-9---9-9---7-7---7-7-|
|-0h2---5---2---0---2p0---2---0h2---5---2---0---2p0---2---9-9---9-9---7-7---7-7-|
|-------------------------------------------------------------------------------|
|-----0---0---0---0-----0---------0---0---0---0-----0---------------------------|

|---------------------------------------------------------3---3---3---3---5---5---5---5-|
|---------------------------------------------------------3---3---3---3---5---5---5---5-|
|---------------------------------------------------------4---4---4---4---6---6---6---6-|
|-0h2---5---2---0---2p0---2---0h2---5---2---0---2p0---2---5---5---5---5---7---7---7---7-|
|---------------------------------------------------------5---5---5---5---7---7---7---7-|
|-----0---0---0---0-----0---------0---0---0---0-----0-----3---3---3---3---5---5---5---5-|

|-----------------------------------------------------------------------------0|
|-----------------------------------------------------------------------------3|
|-----------------------------------------------------------------------------3|
|-0h2---5---2---0---2p0---2---0h2---5---2---0---2p0---2---0h2---5---2---0-----3|
|-----------------------------------------------------------------------------0|
|-----0---0---0---0-----0---------0---0---0---0-----0---------0---0---0---0---0|
Comments