Zz Top - Jesus Just Left Chicago Chords & Tabs

 

Jesus Just Left Chicago Chords & Tabs

Zz Top Chords & Tabs

Version: 1 Type: Tab 0 ratings
1 star 2 stars 3 stars 4 stars 5 stars
comments

Jesus Just Left Chicago Tab

   



Jesus Just Left Chicago 
from ZZ Top - Tres Hombres 

intro 
G C/G G C/G 
E-3--3--|-3--3--| 
B-0--1--|-0--1--| 
G-0--0--|-0--0--| 
D-0--2--|-0--2--| 
A-2--x--|-2--x--| 
E-3--3--|-3--3--| 

verse 1 
G C/G G C/G G C/G G C/G 
E-3--3--|-3--3--|-3--3--|-3--3--| 
B-0--1--|-0--1--|-0--1--|-0--1--| 
G-0--0--|-0--0--|-0--0--|-0--0--| 
D-0--2--|-0--2--|-0--2--|-0--2--| 
A-2--x--|-2--x--|-2--x--|-2--x--| 
E-3--3--|-3--3--|-3--3--|-3--3--| 

C F/C C F/C G C/G G C/G 
E-x--x--|-x--x--|-3--3--|-3--3--| 
B-5--6--|-5--6--|-0--1--|-0--1--| 
G-5--5--|-5--5--|-0--0--|-0--0--| 
D-5--7--|-5--7--|-0--2--|-0--2--| 
A-x--x--|-x--x--|-2--x--|-2--x--| 
E-x--x--|-x--x--|-3--3--|-3--3--| 

G C/G 
E-3--3--| 
B-0--1--| 
G-0--0--| 
D-0--2--| 
A-2--x--| 
E-3--3--| 
Yeah, yeah. 
A C G 
E-0------0------3-| 
B-2------1------3-| 
G-2------0------0-| 
D-2------2------0-| 
A-0--0-2-3--1---2-| 
E-------------3-3-| 
cool turnaround 
|-----figure 1----------| 
E-----|-3---3-----3-----3-----| 
B-----|-----------------------| 
G---0-|-----------------------| 
D-----|---3---3-2---2-1-------| 
A-1---|-------------------1---| 
E-----|---------------------3-| 

Repeat for verse two 

Guitar Solo 

E--8------8------8------8-------------I--------------------I 
B-10b1/2-10b1/2-10b1/2-10b1/2---------I--------------------I 
G-----------------------------------3-I-5b1----3-----------I 
D---------------------------------5---I-----------3--------I 
A-------------------------------------I--------------------I 
E-------------------------------------I----------------6p3-I 

E--8------8------8----------I 
B-10b1/2-10b1/2--10b1/2-----I 
G---------------------------I 
D---------------------------I 
A---------------------------I 
E---------------------------I 

E-------------------------I------3------------------------I 
B------------------6b1--6-I-6b1----6-----6b1--6p3h6p3h6p3-I 
G-5b1--5b1--3----3--------I--------5b1r3------------------I 
D--------------5----------I-------------------------------I 
A-------------------------I-------------------------------I 
E-------------------------I-------------------------------I 

E----------------------------I 
B-----------------6----------I 
G--5p3--5--3-5b1--5-3------0-I 
D-5----5--5----------------0-I 
A------------------------1---I 
E----------------------3---3-I 
[ Tab from: http://www.guitartabs.cc/tabs/z/zz_top/jesus_just_left_chicago_tab.html ]
E--8------8------8------------------I---------------------I 
B-10b1/2-10b1/2-10b1/2--------------I---3-6---------------I 
G-----------------------------3-5b1-I-------5b1-------5---I 
D---------------------------5-------I-------------5p3---5-I 
A-----------------------------------I---------------------I 
E-----------------------------------I---------------------I 

E----------------------------I 
B----------------------------I 
G-5b1/2p3--5--3---0----------I 
D---------------3------------I 
A----------------------------I 
E-----------------------3----I 

(turnaround) 
E----3-----3-----3-----3-I---3-----3------3-----3-I 
B------------------------I------------------------I 
G------------------------I------------------------I 
D------0h3---3-2---2-1---I-----0h3----3-2---2-1---I 
A------------------------I------------------------I 
E-3----------------------I-3----------------------I 

E----3-----3-----3-----3-I---3-----3-----3----3----I 
B------------------------I-------------------------I 
G------------------------I-------------------------I 
D------0h3---3-2---2-1---I-----0h3---3-2---2-1-----I 
A------------------------I----------------------1--I 
E-3----------------------I-3-----------------------I 

Now repeat the main riff for verse three 

(Outro Guitar Solo) 
E-s8----8--------------I-------------------------------------------I 
B-s11---11-------------I----------6p3-6p3---3------------------3-6-I 
G---------------x^^^0--I-5b1--5b1---------5---3-5p3---5--3-5b1-----I 
D---------------x^^-0--I----------------------------5---5----------I 
A----------------------I-------------------------------------------I 
E----------------------I-------------------------------------------I 

E---------------------------------I 
B-6p3---3-------------------------I 
G-----5---3-5p3---5--3-5b1---3----I 
D---------------5---5-------------I 
A---------------------------------I 
E---------------------------------I 

(ph=pitch harm) 
E---------------------------------I-------------6-------I 
B-6ph--6ph--6ph--6-6-6----------6-I-8ph-8ph-8ph---8-8-8-I 
G----------------7-7-7-7-3-5b1--7-I---------------------I 
D---------------------------------I---------------------I 
A---------------------------------I---------------------I 
E---------------------------------I---------------------I 

(start fade) 
E------6-------------I--------------------------I 
B-8-8----8-8-8-------I--------------------------I 
G--------------7-5-3-I-3-----3------------------I 
D--------------------I---5----------3h5p3-5-3-5-I 
A--------------------I-----3---3-3--------------I 
E--------------------I--------------------------I 

(fade out) 
E-----------------------1--1--I-------------------------I------I 
B-----------------------3--3--I--------------3----------I------I 
G-----------------------------I-5b1--5b1p3-5---3-----0--I------I 
D--3-5p3-5-3-5-3--------------I-------------------------I------I 
A------------------5-5--------I-------------------------I------I 
E----------------6-3-3--------I-------------------6-----I-3----I

The correct order should be 
Verse 1 
Verse 2 
Guitar Solo 
Verse 3 
Outro Solo



Got this one from another site forgot which one.  An awesome song by a
R&R Hall of Fame Member.


 
Comments