Zz Top - I M Bad I M Nation Wide Chords & Tabs

 

I M Bad I M Nation Wide Chords & Tabs

Zz Top Chords & Tabs

Version: 1 Type: Tab 0 ratings
1 star 2 stars 3 stars 4 stars 5 stars
comments

I M Bad I M Nation Wide Tab

   
#----------------------------------PLEASE NOTE---------------------------------#
#This file is the author's own work and represents their interpretation of the #
#song. You may only use this file for private study, scholarship, or research. #
#------------------------------------------------------------------------------##

                             I'M BAD, I'M NATIONWIDE
                              As recorded by ZZ TOP

Words and Music by Billy Gibbons, Dusty Hill and Frank Beard
Arranged by Guitar Zone - Rick DiStefano
Transcribed by rdistefano@hotmail.com

          B7                   C7                    F                    C
      x x 4 2 4 x          x x 5 3 5 x          x x 7 5 6 x          x x 5 5 5 x

           B
      x x 4 4 4 x

Gtr I (E A D G B E) - 'Untitled'
Gtr II (E A D G B E) - 'Untitled'
Gtr III (E A D G B E) - 'Untitled'

                  Intro
            Moderately Q=100
 4/4
            Gtr I
                                                          ~~
  H    Q  E S S     A      +E    E   E  E      E   E      Q
|---------------||--8-------------------------------------------|
|-----------x-x-||-11b13==(11)r(11)-----------------------------|
|---------------||---------------------10b12r(10)--8b8.5--------|
|---------------||---------------------------------------10-----|
|---------------||----------------------------------------------|
|---------------||----------------------------------------------|
|
|           Gtr II
|                           PM-----------------------------------
| W                         E    E   E  E      E   E      E  E
|---------------||----------------------------------------------|
|---------------||----------------------------------------------|
|---------------||----------------------------------------------|
|---------------||----------------------------------------------|
|---------------||---------10---10--12--8-----10--10-----10-(8)-|
|---------------||----------8----8---8--8------8---8------8--8--|


   E  E   E  E   A  E  E E E    A      +E    E   E  E      E   E      E  E
|----------------------------|----------------------------------------------|
|----------------------------|-11b13==(11)r(11)----------------------10-----|
|----------------------------|---------------------10b12r(10)--8b8.5-10-----|
|--8---------8---------------|-------------------------------------------8--|
|-----8h=10-----10s=8p=6-8-6-|----------------------------------------------|
|----------------------------|----------------------------------------------|
|
|-----------------------------------------------------------------------|
|  E  Q      E     +E  Q   E            E    E   E  E      E   E      E  E
|----------------------------|----------------------------------------------|
|----------------------------|----------------------------------------------|
|----------------------------|----------------------------------------------|
|--8-(8)----(8)----(8)-8---9-|----------------------------------------------|
|-10--8------8-----(8)-8---9-|---------10---10--12--------10--10-----12-10--|
|--8--6------6-----(6)-6---7-|----------8----8---8--8------8---8------8--8--|


                                                   ~
      |--3--|     |--3--|     |--3--|
   A  E  E  E  A  E  E  E  A  E  E  E  E     +E    H         E   E  E      E
|------------------------------------------------|-8--------(8)---------------|
|-10s12-12-12-10s12-12-12-10s12-12-12------------|----------(8)---------------|
|-10s13-13-13-11s13-13-13-11s13-13-13-10b12-(10)-|-----------------10b12r(10)-|
|------------------------------------------------|----------------------------|
|------------------------------------------------|----------------------------|
|------------------------------------------------|----------------------------|
|
|                                                  PM--------------------------
|     |--3--|     |--3--|     |--3--|
|  A  E  E  E  A  E  E  E  A  E  E  E  E      E    E  E E E  E   E  E      E
|------------------------------------------------|----------------------------|
|-10s12-12-12-10s12-12-12-10s12-12-12------------|----------------------------|
|-10s13-13-13-11s13-13-13-11s13-13-13-10------8--|----------------------------|
|-------------------------------------10------8--|----------------------------|
|--------------------------------------8------6--|-x-10-x----x--10-12-----10--|
|------------------------------------------------|-x--8-x-8--x---8--8------8--|


     ~~~~~~~~~                          ~~~
  S  E.     Q    +E.    S  E     +E     H          E  E  E  E
|------------------------------------|--8----------------------|
|------------------------------------|-(8)---------x----18-20--|
|-8-----------------------10b12-(10)-|----------------x--------|
|---10-----10---(10)----x------------|-------------------------|
|------------------------------------|-------------------------|
|------------------------------------|-------------------------|
|
|----------------------------------------------------------|
| E      E  E E   E   E    E      E     E   E E E  E  E  E  E
|------------------------------------|-------------------------|
|------------------------------------|-------------------------|
|------------------------------------|-------------------------|
|------------------------------------|------------10-------10--|
|-x-----10--x-----x--10---12-----10--|-----10-----10-10-12-10--|
|-x------8--x-8---x---8----8------8--|------8---8--8--8--8-----|


                                $
  S  S  E  +Q      Q      Q
|---20p18-(18)---(18)s===17----|
|-------------------------------|
|-------------------------------|
|-------------------------------|
|-------------------------------|
|-------------------------------|
|
| E     E   E  E   E   E  E   E
|-------------------------------|
|-------------------------------|
|-------------------------------|
|------10---------10---------10-|
|------10---------10--10-12--10-|
|-------8------8---8---8--8-----|


   Verse
     W                       W
||------------------------|---------------------------|
||o-----------------------|---------------------------|
||------------------------|---------------------------|
||------------------------|---------------------------|
||o-----------------------|---------------------------|
||------------------------|---------------------------|
|
|    E  E  E E  E  E  E E    E  E  E E  E  E  E   E
||------------------------|---------------------------|
||o-----------------------|---------------------------|
||------------------------|---------------------------|
||------------------------|---------------------(10)--|
||o-10-10-12-8-10-10-12-8-|-10-10-12-8-10-10-12--10---|
||---8--8--8-8--8--8--8-8-|--8--8--8-8--8--8--8---8---|


  Gtr II
  E  E  E  E  E  E  E  E     E   E  E E  E  E  E E     E   E  E E  E  E  E  E
|------------------------|-------------------------|--------------------------|
|------------------------|-------------------------|--------------------------|
|------------------------|-------------------------|--------------------------|
|---10-12-10-10-10-12-10-|-------------------------|-----------------------10-|
|----8--8--8--8--8--8--8-|-(10)-10-12-8-10-10-12-8-|-(10)-10-12-8-10-10-12-10-|
|------------------------|--(8)--8--8-8--8--8--8-8-|---8---8--8-8--8--8--8--8-|


  E  E  E E  E  E  E  E    E  E  E  E  E  E  E  E    E  E   E   E  E  E  E  E
|-----------------------|-------------------------|---------------------------||
|-----------------------|-------------------------|---------------------------||
|-----------------------|-------------------------|---------------------------||
|-----------------------|-10-10-12-10-10-10-12-10-|-------(12)----------------||
|---10-12-8-10-10-12-10-|--8--8--8--8--8--8--8--8-|-10-13--12--10-10-10-12-10-||
|----8--8-8--8--8--8--8-|-------------------------|--8--8---8---8--8--8--8--8-||


  Gtr III
   Q     Q     +E   E  E  E     H.                 Q
|---------------------------|------------------------------|
|-------11----(11)-11-----5s|===6--------------------------|
|-------10----(10)-10-----4s|===5--------------------------|
|-------12----(12)-12-----6s|===7--------------------------|
|---------------------------|------------------------------|
|---------------------------|------------------------------|
|
| Gtr II
|  E  E  E  E   E   E  E  E     E   E  E  S  S  E  E  E  E
|---------------------------|------------------------------|
|---------------------------|------------------------------|
|---------------------------|------------------------------|
|-10-10-12-10--10--10-12-10-|-(10)-10-12-10-10-10-10-12-10-|
|--8--8--8--8---8---8--8--8-|--(8)--8--8--8--8--8--8--8-10-|
|---------------------------|------------------------------|


    Q      Q   +E   E  E  E
|-----------------------------|
|---------/6---(6)--6---------|
|---------/5---(5)--5-----4s==|
|---------/7---(7)--7-----4s==|
|-------------------------6s==|
|-----------------------------|
|
|   E   E  E E  E   E  E  E
|-----------------------------|
|-----------------------------|
|-------------------------9---|
|------------------------10---|
|-(10)-10-12-8-10--10-12-10---|
|--(8)--8--8-8--8---8--8--8---|


    H.                Q        Q     Q     +E        E  E  E
|---------------------------|--------------------------------|
|---------------------------|-------11----(11)------11-----5-|
|---5-----------------------|-------10----(10)------10-----4-|
|---5-----------------------|-------12----(12)------12-----6-|
|---7-----------------------|--------------------------------|
|---------------------------|--------------------------------|
|
|   E   E  E E  E  E  E  E     E  E  E  E   S    S   E  E  E
|---------------------------|--------------------------------|
|---------------------------|--------------------------------|
|--(9)----------------------|--------------------------------|
|-(10)------------------(8)-|-10-10-12-10--10--(10)-10-12-10-|
|-(10)-10-12-8-10-10-12-10--|--8--8--8--8---8---(8)--8--8-10-|
|--(8)--8--8-8--8--8--8--8--|--------------------------------|


                                   To Coda
  ~
  H    +Q.   E         W
|------------------|--------------------------|
|-6----(6)---------|--------------------------|
|-5----(5)---------|--------------------------|
|-7----(7)---------|--------------------------|
|------------------|--------------------------|
|------------------|--------------------------|
|
| H    +Q.   E         E  E  E E  E  E  E  E
|------------------|--------------------------|
|-1----(1)---------|--------------------------|
|-2----(2)---------|--------------------------|
|-3----(3)---------|--------------------------|
|-3----(3)---------|-/10-10-12-8-10-10-12-10--|
|-1----(1)---6b6.5-|--/8--8--8-8--8--8--8--8--|


      |--3--|     |--3--|     |--3--|
   A  E  E  E  A  E  E  E  A  E  E  E  E E
|-----------------------------------------------||
|-10s12-12-12-10s12-12-12-10s12-12-12----------o||
|-10s13-13-13-11s13-13-13-11s13-13-13-10-8b8.5--||
|-----------------------------------------------||
|----------------------------------------------o||
|-----------------------------------------------||
|
|     |--3--|     |--3--|     |--3--|
|  A  E  E  E  A  E  E  E  A  E  E  E  E E
|-----------------------------------------------||
|-10s12-12-12-10s12-12-12-10s12-12-12----------o||
|-10s13-13-13-11s13-13-13-11s13-13-13-10-8------||
|-------------------------------------10-8------||
|--------------------------------------8-6-----o||
|-----------------------------------------------||


     Interlude
                             ~~~
       Q     E.        S  S  E.         E    S  S
|-||----------------------------------------------|
|-||o-------10b11----(10)-8-----------------------|
|-||--------10b12----(10)-8-----------------------|
|-||------------------------10--------(10)--8s10-|
|-||o---------------------------------------------|
|-||----------------------------------------------|
|
|      E  E  E     E      E      S  S   E    E
|-||----------------------------------------------|
|-||o---------------------------------------------|
|-||------------------------------------8---10----|
|-||----------------------x-------------8---10----|
|-||o-10-10-------10------x-----10-10-------------|
|-||---8--8--------8------x------8--8-------------|


   |3|  |-3--| |-3--|  |-3--| |---3---|  |---3----| |---3---|
   S E  S S  S S  S S  S S  S S  S    S  S S      S S  S    S  E
|-----------------------------------------------------------------|
|-----------------------------------------------------------------|
|-----------------------------------------------------------------|
|-10---10---10---10---10---10---10------10-------10---10------10-|
|-----------------------------------------------------------------|
|----8----8----8----8----8----8-------8----8--------8-------8-----|
|
|  E    E      E       E    E       S    S    E           E
|-----------------------------------------------------------------|
|--------------------------------------------(8)------------------|
|---------------------------------------------8----------10-------|
|---------------------------x------10---10----8----------10-------|
|--x---10------x------10----x------10---10------------------------|
|--x----8------x-------8----x-------8----8------------------------|


                        ~~~
  Q     E.        S  S  E.        E   S S
|-----------------------------------------|
|------10b11----(10)-8--------------------|
|------10b12----(10)-8--------------------|
|----------------------10--------10--1h3-|
|-----------------------------------------|
|-----------------------------------------|
|
| E  E  E     E      E      S  S  E   E
|-----------------------------------------|
|--------------------------------(8)------|
|---------------------------------8--10---|
|--------------------x------------8--10---|
|-x-10-------10------x-----10-10----------|
|-x--8--------8------x------8--8----------|


                                            Guitar Solo
                                                    B7        C7
                                             Gtr III
  W                                           Q     Q          E  E  Q
                                                    |          |
                                                    /          /

                                             Gtr I
                                                               ~~~
  S S  S S  S S  S S  S  S S S S S    E   3x  E  E  S S   +E   Q.       E
|-----------------------------------------||------------------------------|
|-1----3----1----3----1----3---1------3/-o||--------8---------------------|
|-1----3----1----3----1----3---1------3/--||--x-------8b9-(8)-------------|
|---3----3----3----3-----3---3---3--------||--x---------------10--------8-|
|----------------------------------------o||----(0)-----------------------|
|-----------------------------------------||------------------------------|
|
|                                            Gtr II
| E    E    E    E    Q.            A E   3x  E  E  E      E   E  E  E  E
|-----------------------------------------||------------------------------|
|----------------------------------------o||------------------------------|
|--------------------10-------------------||------------------------/8-10-|
|---------------10-----------------12-----||------------------------/8-10-|
|-----11---12----------------------12-8--o||-10-10--------10---x----------|
|-------------------------------------6---||--8--8---------8---x--8-------|


             F           C
    Q          E       E   E      E   Q
               |           |
               /           /

    E   E     +S   E.      E      E   E   E
|---------------------------------------------|
|---------------------------------------------|
|------10b12-(10)-10-----[10]b12-[8]-10-(10)--|
|------------------------------------10--10---|
|---------------------------------------------|
|---------------------------------------------|
|
|   E   E      E       E   E      E   E   E
|---------------------------------------------|
|---------------------------------------------|
|-------------------------------------8--10---|
|-------------------------------------8--10---|
|-(10)-10-------------10---x------------------|
|---8---8--------------8---x------------------|


        B                C                    F        C
   Q     E            E   E E Q      Q        E    E   E     E      Q
         |                |                   |        |
         /                /                   /        /

   ~~                     ~~
   Q     S      S    +E   Q   E  E   S S  S S S S  S S S E.         S S   +E
|----------------------------------|------------------------------------------|
|----------------------------------|------------------------------------------|
|-------10b10.5-8b10-(8)---------3-|-5p3----5---3-----------------------------|
|-10---------------------10--------|------5---5----5-4-3p1----------3p1b2-(1)-|
|----------------------------------|------------------------------------------|
|----------------------------------|------------------------------------------|
|
|  E  E  E            E   E E E  E   E    E   E    E   E     S   S  E      E
|----------------------------------|------------------------------------------|
|----------------------------------|------------------------------------------|
|-----------------------------8-10-|--------------------------------8-----10--|
|-----------------------------8-10-|-------------------x------------8-----10--|
|-10-10--------------10---x--------|-----10-------10---x----------------------|
|--8--8---------------8---x--------|------8--------8---x----(6)-(6)-----------|


        F          C                  F       C
   Q    E    E     E E   Q       Q    E  E     E  E   Q
        |          |                  |        |
        /          /                  /        /

   E  E S S  E     E.  s E  E    E  E E  E    +E  E   E  E
|-----------------------------|----------------------------|
|-----------------------------|----------------------------|
|-----------------------------|----------------------------|
|------------1b1.5------------|----------------------------|
|--3----1h3--------3p==1------|--6----6--8b10-(8)-6---8----|
|-----3---------------------3-|-----8--------------------8-|
|
|  E  E E    E     E S S E  E    E  E E  E     E  S S E  E
|-----------------------------|----------------------------|
|-----------------------------|----------------------------|
|------------------------8-10-|-----------------------8-10-|
|------------------x-----8-10-|----------------x------8-10-|
|-10-10-----10-----x----------|-10-10---10-----x-----------|
|--8--8------8-----x-8-6------|--8--8----8-----x--8-6------|


        F           C
   Q    E    E      E E   Q
        |           |
        /           /

                    PM~
   E  E S S  E      E Q      E
|-------------------------------|
|-------------------------------|
|-------------------------------|
|-----------(8)b8.5-------------|
|------------6---------------6--|
|--8--6-6h8---------8-8------6--|
|
|  E  E E    E      E S S E  E
|-------------------------------|
|-------------------------------|
|-------------------------8-10--|
|-------------------x-----8-10--|
|-10-10-----10------x-----------|
|--8--8------8------x-8-6-------|


           F       C             F
   Q         E   E  E E   Q       W
             |      |
             /      /

                                 Gtr I
                                                   ~~~
   E  E     +E   E  E E   E  E    Q        +E   E  Q    E   E
|------------------------------|----------------8------11---------|
|------------------10-----8----|------------------13------(12)----|
|----10b12-(10)--8-10-----8----|-10b12----(10)--------------------|
|---------------------8-----10-|----------------------------------|
|------------------------------|----------------------------------|
|--8---------------------------|----------------------------------|
|
| Gtr II
|  E  E      E   E  E S S E  E    E     E   E   E  Q.       E
|------------------------------|----------------------------------|
|------------------------------|----------------------------------|
|-------------------------8-10-|------------------10--------------|
|-------------------x-----8-10-|---------------10-----------------|
|-10-10---------10--x----------|-------11--12---------------------|
|--8--8----------8--x-8-6------|----------------------------6b6.5-|


  C5
   W
   E  E     +E  E  E  E      S  S  S. T
|---------------------------------------|
|----10b11-(10)---10--8b8.5-------------|
|----10b12-(10)-8-10--8b8.5-------------|
|---------------------------10-10--8h10-|
|---------------------------------------|
|---------------------------------------|
|
|  E  E      E  E  E  E      E     E
|---------------------------------------|
|---------------------------------------|
|---------------------------------------|
|---------------------------------------|
|-10-10-----12--8-10-10-----12----10----|
|--8--8------8--8--8--8------8-----8----|


  Bb                  B   C5
          ~~~~~~~~~~~                              ~~~
  E  Q    E  +E   Q   E   A  E  E  E     E   E  E  E  E
|-----------------------|-------------------------------|
|-----------------------|---------10b11-(8)-10----------|
|-----------------------|---------10b12--8--10----------|
|----8----8--(8)--8---9-|-9h10--------------10-10-10p=8-|
|-----------------------|-------0--------------10-------|
|-----------------------|-------------------------------|
|
| E  Q    E  +E   Q   E      E  E  E     E   E  E  E  E
|-----------------------|-------------------------------|
|-----------------------|-------------------------------|
|---(9)--(9)-(9)-(9)----|-------------------------------|
|----8----8--(8)--8---9S|===10--------------------------|
|----8----8--(8)--8---9S|===10-10-12-----8--10-10-12-10-|
|----6----6--(6)--6---7S|====8--8--8-----8---8--8--8--8-|


  N.C.                                             C5                Eb5    C5
                                                   ~
      |--3--|     |--3--|     |--3--|
   A  E  E  E  A  E  E  E  A  E  E  E  E     +E    H       +E    E    E      E
|------------------------------------------------|-8-------(8)-----------------|
|-10s12-12-12-10s12-12-12-10s12-12-12------------|-------------------10pb11r10-|
|-10s13-13-13-11s13-13-13-11s13-13-13-10b12-(10)-|-------------------10pb12r10-|
|------------------------------------------------|-----------------------------|
|------------------------------------------------|-----------------------------|
|------------------------------------------------|-----------------------------|
|
|     |--3--|     |--3--|     |--3--|
|  A  E  E  E  A  E  E  E  A  E  E  E  E      E    E E E E  s  s S S  E      E
|------------------------------------------------|-----------------------------|
|-10s12-12-12-10s12-12-12-10s12-12-12------------|-----------------------------|
|-10s13-13-13-11s13-13-13-11s13-13-13-10------8--|--------------------8--------|
|-------------------------------------10------8--|-5-5---5-(5)--------8------5-|
|--------------------------------------8------6--|-3-3---3--3--3------6------3-|
|------------------------------------------------|---------------6-3-----------|


     ~~~~~~~~~~
  S  E.    +H               E     +E
|-------------------------------------|
|-8-------------------------8b10--(8)-|
|-8------------------------10b12-(10)-|
|---10----(10)------------------------|
|-------------------------------------|
|-------------------------------------|
|
| E     E   E  E  s  s S S  E      E
|-------------------------------------|
|-------------------------------------|
|---------------------------8---------|
|-5-----5------5-(5)--------8------5--|
|-3-----3------3--3--3------6------3--|
|----------------------6-3------------|


                                              D.S. al Coda
  ~                             ~~~~~~~~~~~~~~~~~~~~~~~~~~~~
  H       +E    E    E  E    S  E.    +Q      Q.          E
|-8-------(8)-------------|-20p18----(18)---(18)------------||
|-------------------18-20-|----------------------------------||
|-------------------------|----------------------------------||
|-------------------------|----------------------------------||
|-------------------------|----------------------------------||
|-------------------------|----------------------------------||
|
| E E E E  s  s S S  E  E    E     E   E  E   S   S S S E E
|-------------------------|----------------------------------||
|-------------------------|----------------------------------||
|--------------------8----|-----------------------------8----||
|-5-5---5-(5)--------8--5-|--5-----5------5---x---x-----8-5--||
|-3-3---3--3--3------6--3-|--3-----3------3---x---x-----6-3--||
|---------------6-3-------|-------------------------6-3------||

[ Tab from: http://www.guitartabs.cc/tabs/z/zz_top/i_m_bad_i_m_nation_wide_tab.html ]
  &
      |--3--|     |--3--|     |--3--|
   A  E  E  E  A  E  E  E  A  E  E  E  S  S E
|-------------------------------------------------||
|-10s12-12-12-10s12-12-12-10s12-12-12-------------||
|-10s13-13-13-11s13-13-13-11s13-13-13--8-10-8b8.5-||
|-------------------------------------------------||
|-------------------------------------------------||
|-------------------------------------------------||
|
|     |--3--|     |--3--|     |--3--|
|  A  E  E  E  A  E  E  E  A  E  E  E  E    E
|-------------------------------------------------||
|-10s12-12-12-10s12-12-12-10s12-12-12-------------||
|-10s13-13-13-11s13-13-13-11s13-13-13-10----8-----||
|-------------------------------------10----8-----||
|--------------------------------------8----6-----||
|-------------------------------------------------||


 Outro Solo:
   E E Q    E. S  S S  S   S
|----------------------------------------|
|----------------------------------------|
|----------------------8-----------------|
|-10-8--------------8-----10-------------|
|--------------8s10----------------------|
|----------------------------------------|
|
|  E   E   +S  S  E    Q         E  E
|----------------------------------------|
|------8---(8)-8-------8---------8-10----|
|------8---(8)-8-------8---------8-10----|
|------8---(8)-8-------8---------8-10----|
|--3-3-3-3-(3)-3--3-3-(3)--3-3-3-1--3----|
|----------------------------------------|
   S S S S  S  S  S S +S   S S S E  E


    ~~~~
    E    E    Q         Q        S S  S S
|-----------------------------------------|
|-----------------------------------------|
|-----------------------------------------|
|-(10)---8--------------------------------|
|-------------------------------------1-2-|
|----------------------------------3------|
|
|   E    E   +S  S E    Q        E    E
|-----------------------------------------|
|--------8---(8)-8------8--------8---10---|
|--------8---(8)-8------8--------8---10---|
|--------8---(8)-8------8--------8---10---|
|---3--3-3-3-(3)-3---3-(3)-3-3-3-1----1-2-|
|----------------------------------3------|
    S  S S S +S  E   S +S  S S S S S  S S


                                     ~~
  S S S S  s  S S S   +E    S S S S  E
|--------------------------------------|
|--------------------------------------|
|--------------------------------------|
|-----1----3------3b5-(3)---3-1-3-1----|
|-3-3---3----------------------------3-|
|--------------------------------------|
|
| E   E   +S  S E      Q        E    E
|--------------------------------------|
|-----8---(8)-8--------8--------8---10-|
|-----8---(8)-8--------8--------8---10-|
|-----8---(8)-8--------8--------8---10-|
|-3-3-3-3-(3)-3-3-3---(3)-3-3-3-1----3-|
|--------------------------------------|
  S S S S +S  S S S   +S  S S S E    E


  Gtr II
   S S S S S S S S S  S S  S  S    S S S
|----------------------------------------|
|----------------------------------------|
|----------------------------------------|
|----------------------------------------|
|--3-1----------------1------------------|
|------3-2-1-0-1-2-3----3--2--1----0-1-2-|
|
| Gtr I
|  H               E.      S  E      S S
|----------------------------------------|
|----------------------------------------|
|----------------------------10b12---8-8-|
|-10----------------------10-------------|
|----------------------------------------|
|----------------------------------------|


   E   E   +S  S E    Q            E      E
|----------------------------------------------|
|------8---(8)-8------8------------8-----10----|
|------8---(8)-8------8------------8-----10----|
|------8---(8)-8------8------------8-----10----|
|--3-3-3-3-(3)-3-3-3-(3)-3--3--3---1------3----|
|----------------------------------------------|
|  S S S S  S  S S S +S  S  S  S   E      E
|
|                              ~~~~~~~
|  E   E    Q         E     S  S  +E   A  S S
|----------------------------------------------|
|--------------------------12s11-(11)----------|
|--------------------------13s12-(12)-12s10p8--|
|-10p==8---------------------------------------|
|----------------------------------------------|
|----------------------------------------------|


   E   E       +S S E    Q         E    E
|------------------------------------------------|
|------8-------(8)8------8---------8---10--------|
|------8-------(8)8------8---------8---10--------|
|------8-------(8)8------8---------8---10--------|
|--3-3-3-----3-(3)3---3-(3)-3-3-3--1----1---2----|
|------------------------------------3-----------|
|  S S S     S +S E   S +S  S S S  S S  S   S
|
|                                       |--3---|
|  S S E        E   E    E.     S  S S  S S    S
|------------------------------------------------|
|----8-------------------------------------------|
|-10---8b8.5-------------------------------------|
|--------------10p==8----------------8h10p8h==10-|
|-------------------------------8h10-------------|
|------------------------------------------------|


  E       E   +S     S E        Q            E      E
|-------------------------------------------------------|
|---------8---(8)----8----------8------------8-----10---|
|---------8---(8)----8----------8------------8-----10---|
|---------8---(8)----8----------8------------8-----10---|
|-3-----3-3-3-(3)----3-3-----3-(3)-3-----3-3-1------3---|
|-------------------------------------------------------|
| S     S S S +S     S S     S +S  S     S S E      E
|
| E.        S  E       E       +S  E.        E.       S
|-------------------------------------------------------|
|-----------8-(8)------8-------(8)-8---------8--------8-|
|-----------8-(8)------8-------(8)-8---------8--------8-|
|-8tr10-----8--8tr10---8tr10---(8)-8tr10-----8tr10----8-|
|-------------------------------------------------------|
|-------------------------------------------------------|


  Gtr II
   S      S S S  S  S     S S S     S S S  S     S S     S
|----------------------------------------------------------|
|----------------------------------------------------------|
|----------------------------------------------------------|
|----------------------------------------------------------|
|--3------1-------------------------1----------------------|
|-----------3-2--1--0-----1-2-3-------3-2--1-----0-1-----2-|
|
| Gtr I
|  E        E   +S  E.        E.        S  E       E
|----------------------------------------------------------|
|-(8)-------8---(8)-8---------8---------8-(8)--------------|
|-(8)-------8---(8)-8---------8---------8-(8)--------------|
|-(8tr10)---8---(8)-8tr10-----8tr10-----8--8tr10---8tr10---|
|----------------------------------------------------------|
|----------------------------------------------------------|


  E   E   +S  S E    Q       E  E     E   E   +S  S E    Q        E    E
|-----------------------------------|--------------------------------------|
|-----8---(8)-8------8-------8-10---|-----8---(8)-8------8--------8---10---|
|-----8---(8)-8------8-------8-10---|-----8---(8)-8------8--------8---10---|
|-----8---(8)-8------8-------8-10---|-----8---(8)-8------8--------8---10---|
|-3-3-3-3-(3)-3-3-3-(3)3-3-3-1--3---|-3-3-3-3-(3)-3---3-(3)-3-3-3-1----1-2-|
|-----------------------------------|-------------------------------3------|
| S S S S  S  S S S +S S S S E  E     S S S S +S  E   S +S  S S S S S  S S
|
|                                                   ~~
| S E   S  S  s S S  S S E   E  S S   S S S S  S  S E    E    E   Q
|-----------------------------------|--------------------------------------|
|-----------------------------------|--------------------------------------|
|-----------------------------------|--------------------------------------|
|-----------------------------------|--------------------------------------|
|--------------------6s8--------8-6-|-8-9-8-6--8--6------------------------|
|-6s8---8-----8---8-----------------|---------------8p===6-----------------|


   E       E    +S   S E         Q          E  E
|-----------------------------------------------------------|
|----------8----(8)--8-----------8----------8-10------------|
|----------8----(8)--8-----------8----------8-10------------|
|----------8----(8)--8-----------8----------8-10------------|
|--3-----3-3--3-(3)--3-3------3-(3)--3-3--3-1--3------------|
|-----------------------------------------------------------|
|  S     S S  S  S   S S      S +S   S S  S E  E
|
|  |---3---|
|  S     S S  S  S   S S      S  S   S S  S S  S S      S S
|-----------------------------------------------------------|
|-10b11r10-8-----------8b8.5--------10------8---------------|
|-10b12r10-8-10-10-----8b8.5--------10-8-10---10-8b8.5------|
|-------------------10-------10--8---------------------10-7-|
|-----------------------------------------------------------|
|-----------------------------------------------------------|


   E          E   +S  S      E        Q            E    E
|-----------------------------------------------------------|
|-------------8---(8)-8---------------8------------8---10---|
|-------------8---(8)-8---------------8------------8---10---|
|-------------8---(8)-8---------------8------------8---10---|
|--3------3---3-3-(3)-3--------3-----(3)----3-3--3-1----1-2-|
|----------------------------------------------------3------|
|  S      S   S S +S  E        S     +S     S S  S S S  S S
|
|  S     +S   S S  S  S      S S      q       S  a a e  S
|-----------------------------------------------------------|
|---------------------8b8.5----8b8.5------------------------|
|-10b12-(10)-10-8-10--------10--------8b8.5----------8-10---|
|--------------------------------------------------8--------|
|-----------------------------------------------10----------|
|-----------------------------------------------------------|


  E     E   +S   S E      Q        E  E   E         E     +S   S      E     Q                E     E
|---------------------------------------|--------------------------------------------------------------|
|-------8---(8)--8--------8--------8-10-|-----------8-----(8)--8------------8----------------8----10---|
|-------8---(8)--8--------8--------8-10-|-----------8-----(8)--8------------8----------------8----10---|
|-------8---(8)--8--------8--------8-10-|-----------8-----(8)--8------------8----------------8----10---|
|-3--3--3-3-(3)--3-3--3--(3)-3-3-3-1--3-|-3--3------3--3--(3)--3---------3-(3)---3---3---3---1-----1-2-|
|---------------------------------------|-------------------------------------------------------3------|
| S  S  S S  S   S S  S  +S  S S S E  E   S  S      S  S  +S   E         S +S    S   S   S   S  S  S S
|
|    ~~~              ~~                                                                           ~~
| S  E.      S   S S  S  +S  S E   Q      S  S     +E     +S   S     +E     E       +S   S  +S  S  E
|---------------------------------------|--------------------------------------------------------------|
|---------------------------------------|----8-----(8)----(8)--8-----(8)----8-------(8)----------------|
|-8----------8--10----------------------|---10b11-(10)---(10)-10b11-(10)---10b11---(10)-10-(10)-8------|
|---10---------------10-(10)-x----------|---------------------------------------------------------10---|
|---------------------------------------|--------------------------------------------------------------|
|---------------------------------------|--------------------------------------------------------------|


    E    E   +S  S E    Q         E      E
|--------------------------------------------|
|--------8---(8)-8------8---------8-----10---|
|--------8---(8)-8------8---------8-----10---|
|--------8---(8)-8------8---------8-----10---|
|---3--3-3-3-(3)-3-3-3-(3)-3-3--3-1------3---|
|--------------------------------------------|
|   S  S S S +S  S S S +S  S S  S E      E
|
|   E    E    Q         E.      S E A A  S S
|-----------------------------------8--------|
|------------------------------11-----8------|
|------------------------------12--------8-8-|
|-(10)---------------------------------------|
|--------------------------------------------|
|--------------------------------------------|


   S S  S S S S S S S S S S S S S S    E    E         +S  S  E    Q              E        E
|-----------------------------------|-------------------------------------------------------|
|-----------------------------------|-------8---------(8)-8-------8--------------8-------10-|
|-----------------------------------|-------8---------(8)-8-------8--------------8-------10-|
|-----------------------------------|-------8---------(8)-8-------8--------------8-------10-|
|--3-1----------------1-------------|--3-3--3--3------(3)-3--3-3-(3)-3-3------3--1--------3-|
|-------3-2-1-0-1-2-3---3-2-1-0-1-2-|-------------------------------------------------------|
|                                      S S  S  S       S  S  S S +S  S S      S  E        E
|
|       ~~~                                                                               ~~
|  S S  E   E   E   H                  S S  S  S       S  S  S S  S  S S      S  S S      E
|-----------------------------------|-------------------------------------------------------|
|-----------------------------------|-11-8---------------------------8----------------------|
|-10-8------------------------------|------10-10pb12r(10)-8-10-8-10----8b8.5----11-8b8.5----|
|------10p==8-----------------------|----------------------------------------10----------10-|
|-----------------------------------|-------------------------------------------------------|
|-----------------------------------|-------------------------------------------------------|


  E     E    +S   S   E           Q         E     E
|------------------------------------------------------|
|-------8----(8)--8---------------8---------8----10----|
|-------8----(8)--8---------------8---------8----10----|
|-------8----(8)--8---------------8---------8----10----|
|-3--3--3--3-(3)--3----------3---(3)-3-3--3-1-----1--2-|
|----------------------------------------------3-------|
| S  S  S  S +S   E          S   +S  S S  S S  S  S  S
|
| S  S  S  S  S   S   S     +S   +E    S  S S  S  S  S
|-------------8------------------------8----8-11p=8----|
|-8-11-(8)-8-----(8)-11b13-(11)-(11)-----11---------11-|
|------------------------------------------------------|
|------------------------------------------------------|
|------------------------------------------------------|
|------------------------------------------------------|


  E    E      +S  S  E    Q             E  E
|--------------------------------------------|
|------8------(8)-8-------8-------------8-10-|
|------8------(8)-8-------8-------------8-10-|
|------8------(8)-8-------8-------------8-10-|
|-3-3--3----3-(3)-3--3-3-(3)-3--3----3--1--3-|
|--------------------------------------------|
| S S  S    S  S  S  S S +S  S  S    S  E  E
|
| e    Q             S S  S  S  S    S  e  E
|-8------------------------------------------|
|-----11b13---------11-8-11------------------|
|----------------------------8-10b12-8-10----|
|--------------------------------------------|
|--------------------------------------------|
|--------------------------------------------|


   E       E   +S  S E         Q         E       E
|----------------------------------------------------|
|----------8---(8)-8-----------8---------8------10---|
|----------8---(8)-8-----------8---------8------10---|
|----------8---(8)-8-----------8---------8------10---|
|--3----3--3-3-(3)-3--------3-(3)-3--3-3-1-------1-2-|
|------------------------------------------3---------|
|  S    S  S S +S  E        S +S  S  S S S S     S S
|
|                                    ~~
|                                        |-3--|
|  E       S S  S  S S      S  S  S  E   E    S  e
|----------------------------------------------------|
|------------------8---------------------------------|
|-10b12---10-8-10----8b8.5----10--8------------------|
|--------------------------10-------10---8------10---|
|--------------------------------------------10------|
|----------------------------------------------------|


  E     E      +S  S   E        Q            E    E
|---------------------------------------------------|
|-------8------(8)-8------------8------------8---10-|
|-------8------(8)-8------------8------------8---10-|
|-------8------(8)-8------------8------------8---10-|
|-3--3--3----3-(3)-3---3-----3-(3)-3-3---3---1----3-|
|---------------------------------------------------|
| S  S  S    S  S  S   S     S +S  S S   S   E    E
|
|                                                 ~~~
| E     Q              S     S  S  E     s   S S  E
|---------------------------------------------------|
|-x/---12-------------------------------------------|
|------10b12---------(10)b12p8-10--8--------10p8----|
|------------------------------------------------10p|
|--------------------------------------(10)---------|
|---------------------------------------------------|


  E   E        +S  S  E    Q        E    E
|--------------------------------------------|
|-----8--------(8)-8-------8--------8---10---|
|-----8--------(8)-8-------8--------8---10---|
|-----8--------(8)-8-------8--------8---10---|
|-3-3-3--3-----(3)-3----3-(3)-3-3-3-1----1-2-|
|-------------------------------------3------|
| S S S  S     +S  E    S +S  S S S S S  S S
|
| S S S  S     +E     S S  Q        S S  E
|--------------------------------------------|
|--------------------------------------------|
|-------10b11-(10)---10-8--------------------|
|-8-----------------------------------7s10---|
|--------------------------------------------|
|--------------------------------------------|


  E       E       +S  S E    Q           E    E
|-------------------------------------------------|
|---------8-------(8)-8------8-----------8---10---|
|---------8-------(8)-8------8-----------8---10---|
|---------8-------(8)-8------8-----------8---10---|
|-3-----3-3-----3-(3)-3-3-3-(3)--3--3-3--1----3---|
|-------------------------------------------------|
| S     S S     S +S  S S S +S   S  S S  E    E
|
|                  ~~~
| E       E        E.     S  S   S  S S  S S  S S
|-------------------------------------------------|
|-------------------------------------------------|
|-8b8.5---8b8.5-----------------------------------|
|-----------------10------8-----10----8-----------|
|----------------------------------10---10-9--8s6-|
|-------------------------------------------------|


  S S S S S S S S S  S S S S S S S
|-----------------------------------|
|-----------------------------------|
|-----------------------------------|
|-----------------------------------|
|-3-1----------------1--------------|
|-----3-2-1-0-1-2-3----3-2-1-0-1-2--|
|
| S S e   Q       E.     S S S e
|-----------------------------------|
|-----------------------------------|
|-----------------------------------|
|-----------------------------------|
|-8p6------------------------1-3----|
|-----8------------------1h3--------|


  E      E      +S  S E       Q           E    E
|--------------------------------------------------|
|--------8------(8)-8---------8-----------8---10---|
|--------8------(8)-8---------8-----------8---10---|
|--------8------(8)-8---------8-----------8---10---|
|-3----3-3-3----(3)-3-3----3-(3)-3----3-3-1----3---|
|--------------------------------------------------|
| S    S S S     S  S S    S +S  S    S S E    E
|
| E.       S    +E    E      +S  E      S S S  S S
|--------------------------------------------------|
|--------------------------------------------------|
|--------------------------------------------------|
|-----------------------------------------1-3------|
|-1tr3-----1tr3-(1)---1tr3---(1)-1tr3---3------3-1-|
|--------------------------------------------------|


  E      E      +S  S E       Q           E    E
|---------------------------------------------------|
|--------8------(8)-8---------8-----------8---10----|
|--------8------(8)-8---------8-----------8---10----|
|--------8------(8)-8---------8-----------8---10----|
|-3----3-3-3----(3)-3------3-(3)-3----3-3-1----1-2--|
|-------------------------------------------3-------|
| S    S S S    +S  E      S +S  S    S S S S  S S
|
| E.       S    +E    E      +S  E.       S S  S S
|---------------------------------------------------|
|---------------------------------------------------|
|---------------------------------------------------|
|---------------------------------------------------|
|-1tr3-----1tr3-(1)---1tr3---(1)-1tr3-----1----1-3--|
|-------------------------------------------3-------|


  E   E      +S    S E       Q           E    E
|-------------------------------------------------|
|-----8------(8)---8---------8-----------8---10---|
|-----8------(8)---8---------8-----------8---10---|
|-----8------(8)---8---------8-----------8---10---|
|-3-3-3--3---(3)---3-3----3-(3)-3----3-3-1----3---|
|-------------------------------------------------|
| S S S  S   +S    S S    S +S  S    S S E    E
|
| S S S.   T  E      E      +S  E      S S S  S S
|-------------------------------------------------|
|-------------------------------------------------|
|-------------------------------------------------|
|----------------------------------------1-3--3-1-|
|-3-1------1--1tr3---1tr3---(1)-1tr3---3----------|
|-------------------------------------------------|


  S S S S S S S S S S  S S S S S S
|----------------------------------|
|----------------------------------|
|----------------------------------|
|----------------------------------|
|-3-1---------------1--------------|
|-----3-2-1-0-1-2-3----3-2-1-0-1-2-|
|
| S S S S S S S S S E.     e   E
|----------------------------------|
|----------------------------------|
|-----3-5---3----------------------|
|-3s5-----3---5-4-3s1------3-------|
|----------------------------------|
|----------------------------------|


  E    E     +S  S E    Q         E      E
|-----------------------------------------------|
|------8-----(8)-8------8---------8-----10------|
|------8-----(8)-8------8---------8-----10------|
|------8-----(8)-8------8---------8-----10------|
|-3--3-3--3--(3)-3-3-3-(3)--3-3-3-1------3------|
|-----------------------------------------------|
| S  S S  S   S  S S S +S   S S S E      E
|
|                  ~
| S  E    S  +E    E   +S   S E   E      E
|-----------------------------------------------|
|-----------------------------------------------|
|---------------------------------8b8.5-10b10.5-|
|------------------8---(8)-10-----------10b10.5-|
|-8s10---10-(10)--------------------------------|
|-----------------------------------------------|


  E    E   +S  S E    Q          E         E
|-----------------------------------------------|
|------8---(8)-8------8----------8--------10----|
|------8---(8)-8------8----------8--------10----|
|------8---(8)-8------8----------8--------10----|
|-3--3-3-3-(3)-3---3-(3)--3-3--3-1---------1--2-|
|--------------------------------------3--------|
| S  S S S +S  E   S +S   S S  S S     S   S  S
|
|    ~~
| S  E   S  S  S e    S   S S  S E         E
|-----------------------------------------------|
|-----------------------------------------------|
|--------------------------------8b8.5----------|
|----------------8-------10---10---------(10)---|
|-8h10---------x------x-------------------------|
|--------8--------------------------------------|


   E         E    +S  S  E           Q          E   E
|--------------------------------------------------------|
|------------8----(8)-8--------------8----------8--10----|
|------------8----(8)-8--------------8----------8--10----|
|------------8----(8)-8--------------8----------8--10----|
|--3-----3---3--3-(3)-3--3--3-------(3)-3-3-3---1---3----|
|--------------------------------------------------------|
|  S     S   S  S +S  S  S  S       +S  S S S   E   E
|
|  E        +Q           S  S       +Q          E   S  S
|--------------------------------------------------------|
|-----------------------11-------------------------------|
|-10b12====(10)------------10pb12==(10)r======(10)-/8-10-|
|--------------------------------------------------------|
|--------------------------------------------------------|
|--------------------------------------------------------|


   S S  S S S S S S S S S S S S   S S
|-------------------------------------|
|-------------------------------------|
|-------------------------------------|
|-------------------------------------|
|--3-1----------------1---------------|
|-------3-2-1-0-1-2-3---3-2-1-0---1-2-|
|
|       ~~~
|  S S  E   E   E   Q       E     E
|-------------------------------------|
|-------------------------------/11---|
|----8--------------------------/12---|
|-10---10p==9-------------------/13---|
|-------------------------------------|
|-------------------------------------|


    E    E    +S   S E    Q        E   E     E      E    +S   S E    Q         E      E
|----------------------------------------|------------------------------------------------|
|--------8----(8)--8------8--------8--10-|----------8----(8)--8------8---------8-----10---|
|--------8----(8)--8------8--------8--10-|----------8----(8)--8------8---------8-----10---|
|--------8----(8)--8------8--------8--10-|----------8----(8)--8------8---------8-----10---|
|---3--3-3-3--(3)--3-3-3-(3)-3-3-3-1---3-|---3--3---3--3-(3)--3---3-(3)-3-3-3--1------1-2-|
|----------------------------------------|----------------------------------------3-------|
|   S  S S S   S   S S S +S  S S S E   E     S  S   S  S +S   E   S +S  S S S  S  S   S S
|
|   Q         +S   S E    S  S S S E   E     E      E     S   e   S  S  S S S  E      E
|-----------------10-----------------/11-|-(11)---(11)-------10-----10---------8----/12---|
|-(11)-------(11)-11-----11------8-------|---------11-------------------------------------|
|-(12)-------(12)-12-----10------8---/12-|-(12)---(12)-------10-----10------8-(8)---/12---|
|-(13)-------(13)------------------------|------------------------------------------------|
|----------------------------------------|------------------------------------------------|
|----------------------------------------|------------------------------------------------|


    E    E   +S   S E    Q          E   E
|-----------------------------------------*|
|--------8---(8)--8------8----------8--10-*|
|--------8---(8)--8------8----------8--10-*|
|--------8---(8)--8------8----------8--10-*|
|---3--3-3-3-(3)--3-3-3-(3)-3--3-3--1---3-*|
|-----------------------------------------*|
|   S  S S S +S   S S S +S  S  S S  E   E
|
|   Q         S   e   S  E     S S +E   e
|-(12)-----------10-----10-------8-(8)-10-*|
|-----------------------------------------*|
|-(12)-----------10-----10-------8-(8)-10-*|
|-----------------------------10----------*|
|-----------------------------------------*|
|-----------------------------------------*|


Duration Legend
---------------
W - whole; H - half; Q - quarter; E - 8th; S - 16th; T - 32nd; X - 64th; a - acciaccatura
+ - note tied to previous; . - note dotted; .. - note double dotted
Uncapitalized letters represent notes that are staccato (1/2 duration)
Irregular groupings are notated above the duration line
Duration letters will always appear directly above the note/fret number it represents the
duration for.  Duration letters with no fret number below them represent rests.  Multi-
bar rests are notated in the form Wxn, where n is the number of bars to rest for.  Low
melody durations appear below the staff

Tablature Legend
----------------
 h   - hammer-on
 p   - pull-off
 b   - bend
 pb  - pre-bend
 r   - bend release (if no number after the r, then release immediately)
 /  - slide into or out of (from/to "nowhere")
 s   - legato slide
 S   - shift slide
  - natural harmonic
[n]  - artificial harmonic
n(n) - tapped harmonic
 ~   - vibrato
 tr  - trill
 T   - tap
 TP  - trem. picking
 PM  - palm muting
n/  - tremolo bar dip; n = amount to dip
 n  - tremolo bar down
 n/  - tremolo bar up
/n  - tremolo bar inverted dip
 =   - hold bend; also acts as connecting device for hammers/pulls
   - volume swell (louder/softer)
 x   - on rhythm slash represents muted slash
 o   - on rhythm slash represents single note slash

Misc Legend
-----------
 |  - bar
||  - double bar
||o - repeat start
o|| - repeat end
*|  - double bar (ending)
 :  - bar (freetime)
 $  - Segno
 &  - Coda
Tempo markers -  = BPM(8/16=s8/s16), where s8 = swing 8ths, s16 = swing 16ths


***************************************************************************************
* Generated using Power Tab Editor by Brad Larsen - http://powertab.guitarnetwork.org *
***************************************************************************************
Comments