Zz Top - Got Me Under Pressure Chords & Tabs

 

Got Me Under Pressure Chords & Tabs

Zz Top Chords & Tabs

Version: 3 Type: Tab

Got Me Under Pressure Tab

The other tab is not the best in the world, I'll try to do better.

e|-------------------------------| (Intro)
b|-9-9-7---9-9-7-----------------|
g|-9-9-7-7-9-9-7----------------.|
d|-9-9-7-7-9-9-7----------------.|
a|-------7------7-7-7-7-7-7-7-7--|
E|--------------0-0-0-0-0-0-0-0--|
[ Tab from: http://www.guitartabs.cc/tabs/z/zz_top/got_me_under_pressure_tab_ver_3.html ]
e|------------------------------|
b|--9-7---9-9-7-----------------|
g|--9-7-7-9-9-7----------------.|
d|--9-7-7-9-9-7----------------.|
a|------7------7-7-7-7-7-7-7-7--|
E|-------------0-0-0-0-0-0-0-0--|
Repeat Five Times.

|---------------------|
|---------------------|
|--------------------.|
|-0-0-0--0-0-------2-.|
|-0-0-0--0-0----------|
|------------0-3h4----|

Repeat Four times then the vocals come in, I forget the rest.



                                          Eric W.