Zz Top - Bad To The Bone Chords & Tabs

 

Bad To The Bone Chords & Tabs

Zz Top Chords & Tabs

Version: 2 Type: Tab 0 ratings
1 star 2 stars 3 stars 4 stars 5 stars
comments

Bad To The Bone Tab

E---------------------------------|
B---------------------------------|
G--0-0---5-0--3-0-----------------|    do 4 times
D--0-0---5-0--3-0-----------------|
A---------------------------------|
E---------------------------------|

E---------------------------------|
B---------------------------------|
G--0-0---5-0--3-0-----------------|    let ring
D--0-0---5-0--3-0-----------------|
A---------------------------------|
E---------------------------------|
[ Tab from: http://www.guitartabs.cc/tabs/z/zz_top/bad_to_the_bone_tab_ver_2.html ]
E---------------------------------|
B---------------------------------|
G--10/-0---0-0---5-0--3-0--/9-----|
D--10/-0---0-0---5-0--3-0--/9-----|
A---------------------------------|
E---------------------------------|

E---------------------------------|
B---------------------------------|
G--0-0---5-0--3-0-----------------|
D--0-0---5-0--3-0-----------------|
A---------------------------------|
E---------------------------------|


and thats all i got please email me for any suggestions
Comments