Zz Top - Backdoor Medley Mellow Down Easy Live Chords & Tabs

 

Backdoor Medley Mellow Down Easy Live Chords & Tabs

Zz Top Chords & Tabs

Version: 1 Type: Tab 0 ratings
1 star 2 stars 3 stars 4 stars 5 stars
comments

Backdoor Medley Mellow Down Easy Live Tab

   
#----------------------------------PLEASE NOTE---------------------------------#
#This file is the author's own work and represents their interpretation of the #
#song. You may only use this file for private study, scholarship, or research. #
#------------------------------------------------------------------------------##

                    BACKDOOR MEDLEY: MELLOW DOWN EASY (Live)
                              As recorded by ZZ Top
                         (From the 1975 Album FANDANGO)

Words and Music by Willie Dixon
Arranged by ZZ Top
Transcribed by Slowhand (http://www.instantpowertabs.de.vu)

Gtr I (E A D G B E) - 'Billy Gibbons - Gtr.'

   Intro
    Q.=80                 Q=100(8=s8)
    A    A7     D/A           N.C.
   6/8                       2/4
    Gtr I
    E Q  E Q    E Q  E Q       E E E E   E E E E   E E E E
||------------|------------||----------|---------|---------|
||o------8-8--|-7-7--7-7--o||----------|---------|---------|
||--2-2--6-6--|-7-7--7-7---||----------|---------|---------|
||--2-2--7-7--|-7-7--7-7---||-/7-7-5-5-|-7-7-5-5-|-7-7-5-5-|
||o-0-0--0-0--|-0-0--0-0--o||----------|---------|---------|
||------------|------------||----------|---------|---------|


              N.C.
  E E E E     E E E E   E E E E   E E E E   E E E E  6x
|---------||----------|---------|---------|----------||
|---------||o---------|---------|---------|---------o||
|---------||----------|---------|---------|----------||
|-7-7-5-5-||--7p5-7p5-|-7p5-7p5-|-7p5-7p5-|-7p5-7p5--||
|---------||o---------|---------|---------|---------o||
|---------||----------|---------|---------|----------||


  Q=200(8=s8)
  A
 2/2
  E E E E Q  E E   E Q  E Q  E E     E Q  E Q  E E   E Q  E Q  E E  3x
|----------------|---------------||----------------|----------------||
|----------------|---2-----------||o---2-----------|---2-----------o||
|---2---0-2--2---|---2--0-2--2---||----2--0-2--2---|---2--0-2--2----||
|---2-----2------|---------------||----------------|----------------||
|--------------3-|-4-----------3-||o-4-----------3-|-4-----------3-o||
|----------------|---------------||----------------|----------------||

[ Tab from: http://www.guitartabs.cc/tabs/z/zz_top/backdoor_medley_mellow_down_easy_live_tab.html ]
 1st & 2nd Chorus
  $
 2/4
  Wx8       Wx20
|--------||---------|
|--------||---------|
|--------||---------|
|--------||---------|
|--------||---------|
|--------||---------|


   Q   Q     Q   Q     Q   Q     Q   Q    Wx3
|---------|---------|---------|---------|--------|
|---------|---------|---------|---------|--------|
|---------|---------|---------|---------|--------|
|---------|-/7--/7--|---------|-/7------|--------|
|---------|---------|---------|---------|--------|
|-/5--/5--|---------|-/5--/5--|-----/5--|--------|


D.S.
                        N.C.
                           4/4
  W      W       Q  E E     E Q  E Q  E E 11x
|------|------||--------||-----------------||
|------|------||--------||o---2----2--2---o||
|------|------||--------||----2--0-2--2----||
|------|------||--------||-----------------||
|------|------||------3-||o-4-----------3-o||
|------|------||--------||-----------------||


Duration Legend
---------------
W - whole; H - half; Q - quarter; E - 8th; S - 16th; T - 32nd; X - 64th; a - acciaccatura
+ - note tied to previous; . - note dotted; .. - note double dotted
Uncapitalized letters represent notes that are staccato (1/2 duration)
Irregular groupings are notated above the duration line
Duration letters will always appear directly above the note/fret number it represents the
duration for.  Duration letters with no fret number below them represent rests.  Multi-
bar rests are notated in the form Wxn, where n is the number of bars to rest for.  Low
melody durations appear below the staff

Tablature Legend
----------------
 h   - hammer-on
 p   - pull-off
 b   - bend
 pb  - pre-bend
 r   - bend release (if no number after the r, then release immediately)
 /  - slide into or out of (from/to "nowhere")
 s   - legato slide
 S   - shift slide
  - natural harmonic
[n]  - artificial harmonic
n(n) - tapped harmonic
 ~   - vibrato
 tr  - trill
 T   - tap
 TP  - trem. picking
 PM  - palm muting
n/  - tremolo bar dip; n = amount to dip
 n  - tremolo bar down
 n/  - tremolo bar up
/n  - tremolo bar inverted dip
 =   - hold bend; also acts as connecting device for hammers/pulls
   - volume swell (louder/softer)
 x   - on rhythm slash represents muted slash
 o   - on rhythm slash represents single note slash

Misc Legend
-----------
 |  - bar
||  - double bar
||o - repeat start
o|| - repeat end
*|  - double bar (ending)
 :  - bar (freetime)
 $  - Segno
 &  - Coda
Tempo markers -  = BPM(8/16=s8/s16), where s8 = swing 8ths, s16 = swing 16ths


***************************************************************************************
* Generated using Power Tab Editor by Brad Larsen - http://powertab.guitarnetwork.org *
***************************************************************************************
Comments