Zwan - Honestly Chords & Tabs

 

Honestly Chords & Tabs

Zwan Chords & Tabs

Version: 1 Type: Tab 0 ratings
1 star 2 stars 3 stars 4 stars 5 stars
comments

Honestly Tab

Verse: 

x--2-2-2-2-0-0-0-0-2-2-2-2-3-3-3-3--x 
x--3-3-3-3-2-2-2-2-3-3-3-3-3-3-3-3--x 
x--2-2-2-2-2-2-2-2-4-4-4-4-0-0-0-0--x 
x--0-0-0-0-2-2-2-2-4-4-4-4-0-0-0-0--x 
x----------0-0-0-0-2-2-2-2-2-2-2-2--x 
x------------------2-2-2-2-3-3-3-3--x 


Chorus (W/Distortion): 

x--2-2-2-2-0-0-0-0-3-3-3-3-3-3-3-3--x 
x--3-3-3-3-2-2-2-2-3-3-3-3-3-3-3-3--x 
x--2-2-2-2-2-2-2-2-0-0-0-0-0-0-0-0--x 
x--0-0-0-0-2-2-2-2-0-0-0-0-2-2-2-2--x 
x----------0-0-0-0-2-2-2-2-2-2-2-2--x 
x------------------3-3-3-3-0-0-0-0--x 


Bridge ("All the weathered storms are bringing"): 
[ Tab from: http://www.guitartabs.cc/tabs/z/zwan/honestly_tab.html ]
x------3-3-3-3-2-2h3p2p0-0-0-0--x 
x------3-3-3-3-3-3-3-3-3-3-3-3--x 
x--4-4-0-0-0-0-2-2-2-2-2-2-2-2--x 
x--4-4-0-0-0-0-0-0-0-0-0-0-0-0--x 
x--2-2-2-2-2-2------------------x 
x------3-3-3-3------------------x 


Chorus (2nd Part:"'Cause when I think of you as mine"): 

Same as verse, but with B5 power chord instead of barre chord. 


Solo (The way I play it): 

x-----------------------------------------------17b-15~14~19b--x 
x--15h17p15h17p15h17p15h17h19p17h19p17h19p17h19----------------x 
x--------------------------------------------------------------x 
x--------------------------------------------------------------x 
x--------------------------------------------------------------x 
x--------------------------------------------------------------x 

And so on and so forth.... 


End On: 

x--2--x 
x--3--x 
x--2--x 
x--0--x 
x-----x 
x-----x
_________________
Comments