Zwan - Honestly Chords & Tabs

 

Honestly Chords & Tabs

Zwan Chords & Tabs

Version: 1 Type: Bass Tab 0 ratings
1 star 2 stars 3 stars 4 stars 5 stars
comments

Honestly Bass Tab

Bass starts at this lyric at about ~00:22 

"honestly, wipe the memories " 

-------------------------------------------- 
-------------------------------------------- 
--5--7--4--0--2~-----------5--7--4--0------- 
-------------------3-------------------3~--- 
(Slide is recommended)
"no place,... 
[ Tab from: http://www.guitartabs.cc/tabs/z/zwan/honestly_btab.html ]
--------------------------- 
--------------------------- 
-5-5---------H------------- 
-------5-5--5/7-7--3-3-3-3- 



"It's too far" 

--------------------------- 
--------------------------- 
-5-5---------H------------- 
-------5-5--5/7-7--0-0-0-0- 


(Honestly/Storms)

-------------------------- 
-------------------------- 
-------------------------- 
--3--3--0-0-0-0----------- 


--------------------------- 
--------------------------- 
-5-5---------H------------- 
-------5-5--5/7-7--3-3-3-3- 




(H)=Hammer on
Comments