Zutons - You Will You Won't Chords & Tabs

 

You Will You Won't Chords & Tabs

Zutons Chords & Tabs

Version: 2 Type: Tab 0 ratings
1 star 2 stars 3 stars 4 stars 5 stars
comments

You Will You Won't Tab

   
Ok, this took me like 10 minutes to do so dont blame me if u think its crap!
but it sounds perfect so enjoy! But if u hav ne probs e-mail me----
in_your_world@hotmail.co.uk

Bon Appetite!

Tuning: Standard

Intro: Guitar 1
-------------------------14------|
-------------------------16------|
-------------------------14 x8---|
---------------------------------|
---------------------------------|
-------2/9-----------------------|

While guitar 2 plays this as well on the intro:
-----------------------------|
-----------------------------|
-----------------------------|
----------7-7-7-5-5-4-4-2----|
-----------------------------|
-----------------------------|

Chorus:
(No guitar)
You you will wont...


Verse:Guitar 1
------2------2-----5------2---------|
------3------3-----3------3-X8------|
------2------2-----2------2---------|
------------------------------------|
------------------------------------|
------------------------------------|

Guitar 2:
--------14------------|(plays this more or less at the end of the verse)
--------16---x8-------|
--------14------------|
----------------------|
----------------------|
----------------------|

Chorus:Guitar 1
------2------2-----5------2---------|
------3------3-----3------3---------|
------2------2-----2------2---------|
------------------------------------|
------------------------------------|
------------------------------------|

Guitar 2:(plays this in the backround, you can hear it quite clearly if you listen)
-----------------------------------------|
-----------------------------------------|
-----------------------------------------|
-----------------------------------------|
-------------------------------5-5-5-5---|
-----------------------------------------|

Guitar 1:
------2------2-----5------2---------|
------3------3-----3------3---------|
------2------2-----2------2---------|
------------------------------------|
------------------------------------|
------------------------------------|

Guitar 2:
---------------------------------|(again you can hear it clearly if you
---------------------------------|             listen)
---------------------------------|
-----------------------------7---|
----------------------5/9--------|
---------------------------------|

Guitar 1:
------2------2-----5------2---------|
------3------3-----3------3---------|
------2------2-----2------2---------|
------------------------------------|
------------------------------------|
------------------------------------|

Guitar 2:
-----------------------------------------|
-----------------------------------------|
-----------------------------------------|
-----------------------------------------|
-------------------------------5-5-5-5---|
-----------------------------------------|

------2------2-----5------2---------|
------3------3-----3------3---------|
------2------2-----2------2---------|
------------------------------------|
------------------------------------|
------------------------------------|
[ Tab from: http://www.guitartabs.cc/tabs/z/zutons/you_will_you_wont_tab_ver_2.html ]
Guitar 2:
----------------------------------|
----------------------------------|
----------------------------------|
----------------7-----------------|
--------------------9/7--5--------|
----------------------------------|

Verse 2:
Guitar 1 continues to play main riff (chorus riff, i think)
Guitar 2:plays nothing (again, i think)

Guitar 2: end of verse plays:
--------14------|
--------16--x8--|
--------14------|
----------------|
----------------|

Chorus:
------2------2-----5------2---------|
------3------3-----3------3---------|
------2------2-----2------2---------|
------------------------------------|
------------------------------------|
------------------------------------|

Guitar 2:
-----------------------------------------|
-----------------------------------------|
-----------------------------------------|
-----------------------------------------|
-------------------------------5-5-5-5---|
-----------------------------------------|

Guitar 1:
------2------2-----5------2---------|
------3------3-----3------3---------|
------2------2-----2------2---------|
------------------------------------|
------------------------------------|
------------------------------------|

Guitar 2:
---------------------------------|
---------------------------------|
---------------------------------|
-----------------------------7---|
----------------------5/9--------|
---------------------------------|

Guitar 1:
------2------2-----5------2---------|
------3------3-----3------3---------|
------2------2-----2------2---------|
------------------------------------|
------------------------------------|
------------------------------------|

Guitar 2:
-----------------------------------------|
-----------------------------------------|
-----------------------------------------|
-----------------------------------------|
-------------------------------5-5-5-5---|
-----------------------------------------|

------2------2-----5------2---------|
------3------3-----3------3---------|
------2------2-----2------2---------|
------------------------------------|
------------------------------------|
------------------------------------|

Guitar 2:
----------------------------------|
----------------------------------|
----------------------------------|
----------------7-----------------|
--------------------9/7--5--------|
----------------------------------|

Verse 3: Guitar 1:
Strums these chords for about 4 beats
Em        A x2

Guitar 2: Only on the second time guitar 1 plays the end of A
-------------------------------------|
-------------------------------------|
-------------------------------------|
-------------------------------------|
-------------------------------------|
-------5-5-5---44-4---3-3-3----2-----|

Chorus: Come in about half way through, play as normal

Outro: Im pretty sure you can just play this until the end.
----14------|
----16------|
----14------| play till end
------------|
------------|
------------|

and there you have it! One new Zutons tab! Enjoy! Oh, and if anyone has a tab
for confusion can you e-mail it 2 me? I'd be really grateful! Cheers! If you do
hav any probs you know where 2 e-mail me! Sorry if you get a bit confused, but i
had 2 do both guiatrs but i've laid it out as best as i can!
Comments