Zutons - You Will You Won't Chords & Tabs

 

You Will You Won't Chords & Tabs

Zutons Chords & Tabs

Version: 1 Type: Bass Tab

You Will You Won't Bass Tab

   
-------------------------------------------------------------------------------
			     SONG NAME - Band Name
-------------------------------------------------------------------------------

Tabbed By : Grimjaw


Tuning:Norm

Intro
G|------------------|
D|-7-7-6-6-5-5-4-4-3|
A|------------------|
E|------------------|

Bass drum and vocals for a while

Verse 1
G|------|-------|
D|------|-------|
A|-0-3-4|5-5-3-5| 2nd bar played 8 times
E|------|-------|

Pre-Chorus
G|--------------------|
D|-7-7-6-6-5-5-4-4-4-3|Watch out, this is quite hard to hear on the CD
A|--------------------|
E|--------------------|

Chorus
G|--------|
D|--------|
A|-3-5-3-5|Played 6 times. then;
E|--------|

G|------------|----------------|
D|------------|----------------|played 6 times
A|-5-5-3-5-0-3|-5-5-3-5-0-3-4--|
E|------------|----------------|
[ Tab from: http://www.guitartabs.cc/tabs/z/zutons/you_will_you_wont_btab.html ]
Pre-verse 2
G|--------|
D|--------|Played 8 times
A|-5-5-3-5|
E|--------|

Verse 2
G|----------------------------|-------------------------------------|
D|-5-5-5-5-5-5-5-5-5-5-5-5-5-5|-5-5-7-7-7-7-7-7-7-7-7-7-7-7-7-7-7-7-|played
A|----------------------------|-------------------------------------|2 times
E|----------------------------|-------------------------------------|

Bridge
G|------------------|
D|-7-7-6-6-5-5-4-4-3|
A|------------------|
E|------------------|

Bass drum and vocals

Chorus 2
G|--------|
D|--------|
A|-3-5-3-5|Played 6 times. then;
E|--------|

G|------------|----------------|
D|------------|----------------|played 6 times
A|-5-5-3-5-0-3|-5-5-3-5-0-3-4--|
E|------------|----------------|

Ending

G|------------|
D|-5-7-5-3-0--|
A|------------|
E|------------|





============================================================================