Zutons - Remember Me Chords & Tabs

 

Remember Me Chords & Tabs

Zutons Chords & Tabs

Version: 1 Type: Bass Tab

Remember Me Bass Tab

   
Intro-

g]-5-5-5-5-7-7-7-7-|
d]-----------------|
a]-----------------|
e]-----------------|
(X4)

Verse/Chorus-
[ Tab from: http://www.guitartabs.cc/tabs/z/zutons/remember_me_btab.html ]
g]---------------------|
d]--5-0-5-0-12---2-----|
a]------------2---23---|
e]---------------------|
(played through main verse and chorus on loop)

pre-chorus-

g]-5-5-5-5-5-7-7-7-7-7-7-|
d]-----------------------|
a]-----------------------|
e]-----------------------|