Zutons - Dirty Dancehall Chords & Tabs

 

Dirty Dancehall Chords & Tabs

Zutons Chords & Tabs

Version: 1 Type: Tab

Dirty Dancehall Tab

   
The Zutons - Dirty Dancehall tabs

written and proformed by The Zutons

tabbed by Buddhaman510 a.k.a. Tyler_Anderson.

Part 1

Guitar 1
 
e|---------------      
B|---------------     
G|-11------------     
D|----9b--------- x4  
A|-------12-9-12-      
E|---------------      



e|--------------------------------------------------------------------------
B|-14-----------------14----------------------------------------------------
G|---------------14-------------14------11-------------11------------11 hold
D|-----14b-11-14---------14b-11----11v-----9b-------------9b----------------
A|--------------------------------------------12-9-12--------12-9-12--------
E|--------------------------------------------------------------------------

Guitar 2

e|---------------
B|---------------
G|----------9-11-
D|-4-6-7-10-9-11- x4
A|-4-6-7-10-7-9--
E|-2-4-5-8--7-9--


Part 2

Guitar 2   
e|-------------|
B|-------------|
G|-------------|
D|-------------|
A|-00-33-0-3---| 
E|-----------2-|


Part 3

Guitar 1
e|----------------|
B|-10-14-14-10----|
G|-------------11-|
D|----------------| x4
A|----------------|
E|----------------|


Part 4

Guitar 1

e|-------------------------------------|
B|-------------------------------------|
G|-------------------------------------|
D|-77777777-66666666-55555555-44444444-| one chord per line of "this is just a night..."
A|-77777777-66666666-55555555-44444444-|
E|-55555555-44444444-33333333-22222222-|



Part 1, play till start of verse
[ Tab from: http://www.guitartabs.cc/tabs/z/zutons/dirty_dancehall_tab.html ]
(silence)
Well the sun grew dim and the night grew tall
Everyone's dancing in the dirty dancehall
The chins they did wobble, the eyes did stare
There was a sense of threat in the air

part 2
Everyone's dancing, feeling fine
part 2
But looking like Zombies, as though they're dying
part 2
I stood alone in the darkened room
part 2
My mouth is dry and my heart goes boom

Parts 2 and 3 x4

Part 2
Oh the dogs and the vermin were mooching in the streets
Part 2
Sniffing out the candy and the left over meat
Part 2
Down in the alley a tramp falls asleep
Part 2
Murdering the hooker and chops off their feet

Part 2 alone.

Part 2
Everyone's dancing, feeling fine
Part 2
But looking like Zombies, as though they're dying
Part 2
I stood alone in the darkened room
Part 2
My mouth is dry and my heart goes boom

Part 4
This is just a night in the City of Culture
Part 4
But everyone's whacked and looks like vultures   [4x]

(silence)...Ooh!

Part 2 alone.

Part 2
All the lights came on and the music stopped
Part 2
Men in uniform outside on watch
Part 2
The tramp waits by the bush to pounce
Part 2
Woken up again by a young girl's shout


Part 2
Closing up the club, a fight breaks out
Part 2
All the Black Mariahs were left in no doubt
Part 2
One got killed another one ran
Part 2
They ended up arresting an innocent man

Part 4
This is just a night in the City of Culture
Part 4
But everyone's whacked and looks like vultures [4x]

part 2 x8

repeat part 1 without guitar 1 until end of song.




sorry no solo tab. it's a little trickier than the opening riff, i'll get it to you soon though. promise.