Zutons - Confusion Chords & Tabs

 

Confusion Chords & Tabs

Zutons Chords & Tabs

Version: 1 Type: Bass Tab 0 ratings
1 star 2 stars 3 stars 4 stars 5 stars
comments

Confusion Bass Tab

Confusion
The Zutons

Tabbed By: J.Reith

Intro:

G---------|
D---------|
A-0-------|
E---0-0---| x4

Verse:

G---------       G---------|
D---------       D-0-------|
A-0-------       A---0-0---|
E---0-0--- x4    E---------| x2

G---------       G---------|
D---------       D-0-------|
A-0-------       A---0-0---|
E---0-0--- x6    E---------| x2

G---------|
D---------|
A-0-------|
E---0-0---| x2

Chorus:
[ Tab from: http://www.guitartabs.cc/tabs/z/zutons/confusion_btab.html ]
G---4-4---       G---------|
D-2-------       D---4-4---|
A---------       A-2-------|
E--------- x1    E---------| x1

G---------|
D---------|
A-0-------|
E---0-0---| x2    THEN REPEAT ONCE.

Interlude:

G---------|
D---------|
A-0-------|
E---0-0---| x4

Verse
Chorus

The instrumental is the same bass as the verse.

Verse
Chorus

Outro:            End On:

G---------        G---------|
D---------        D---------|
A-0-------        A-0-------|
E---0-0--- x4     E---------|
Comments