Zug Izland - The River Chords & Tabs

 

The River Chords & Tabs

Zug Izland Chords & Tabs

Version: 1 Type: Tab 0 ratings
1 star 2 stars 3 stars 4 stars 5 stars
comments

The River Tab

Author: KC

CHECK THIS BAND OUT, THEY ARE A NEW ROCK BAND TO INSANE CLOWN POSSE'S
PSYCHOPAHTIC RECORDS, http://www.zugizland.com  


THIS IS DROP D TUNING
[ Tab from: http://www.guitartabs.cc/tabs/z/zug_izland/the_river_tab.html ]
Verse (With Heavy Tremolo)
e--------------------------------
B--------------------------------
G--------------------------------
D-5----3----0---5----3----0------
A-5----3----0---5----3----0------
D-5----3--------5----3----0------
 
 CHORUS                               (UpStroke)                                
e---------------------------------------(2)---
B---------------------------------------(3)---
G---------------------------------------(2)---
D-5----3---2-3--0----0-5--3-5-3--2-3-0--------
A-5----3---2-3--0----0-5--3-5-3--2-3-0--------
D-5----3---2-3--0----0-5--3-5-3--2-3-0--------



Bridge
e---------------------------------------------------------
B---------------------------------------------------------
G---------------------------------------------------------
D--------------0~-2-3-------0----0----0----0--2-3---------
A--------------0~-2-3-(X4)--0-b3-0-b3-0-b3-0--2-3---(x4)--
D-(pick scrape)0~-2-3-------0----0----0----0--2-3---------



Any corrections or anything please e-mail me at Kchev20@hotmail.com.
Comments