Zug Izland - Suicide Chords & Tabs

 

Suicide Chords & Tabs

Zug Izland Chords & Tabs

Version: 1 Type: Tab 0 ratings
1 star 2 stars 3 stars 4 stars 5 stars
comments

Suicide Tab

   
Drop C tuning - CGCFAd

Riff A
|---------------------|-----------------------------|
|---------------------|-----------------------------|
|---------------------|-----------------------------|
|--------5-7-7--------|--------5-7-7----------------|
|-0--3-0-3-5-5-0-0-3--|-0--3-0-3-5-5-0-0-6-0-5-0-3--|
|-0--3-0-------0-0-3--|-0--3-0-------0-0-6-0-5-0-3--|

Riff B
|.....--------|.....--------------|
|.....--------|.....--------------|
|.....--------|.....--------------|
|.....--------|.....--------------|
|.....--------|.....--------------|
|.....----3---|.....-0-6-0-5-0-3--|

Riff C 
|----------------------------------------|
|----------------------------------------|
|----------------------------------------|
|----------------------------------------|
|----------------------------------------|
|-0---0-0-0--0--0-0|-0---0-0-0--0--0-3---|
PM^--------------------------------^

Riff C (cont)
|----------------------------------------------|
|----------------------------------------------|
|----------------------------------------------|
|----------------------------------------------|
|----------------------------------------------|
|-0---0-0-0--0--0-0|-0---0-0-0--0--0-6-0-5-0-3-|
PM^-----------------------------^

Riff D
|---------------------------|
|---------------------------|
|---------------------------|
|---------------------------|
|---------------------------|
|-0-0-0-3-3-3-2-2-5-5-5-5-5-|
PM^-----------------------^
[ Tab from: http://www.guitartabs.cc/tabs/z/zug_izland/suicide_tab.html ]
Intro: RA x2
Verse: RC x2
Chorus: RA x2
Verse2:RB x1, RC x1
Chorus: RA x2
Bridge RD x4
Chorus: RA x6

Lyrics

[Anouncer Talking] FUCKA! ha ha ha! whoo!
Hey there killa, where ya goin?
I see you got a gun and your anger is showin.
Whatcha bout to do, gonna kill her man?
I know that your a ho, but you dont really understand.
You wanna be scary, wanna freak her out.
Knock on the door and put the gun in your own mouth.
Let her try and stop, it doesnt work.
Turn so she can see and make the back of your head squirt!

Before you go and commit...A HOMICIDE
Do us all a favor...YOU SHOULD TRY SUICIDE
If your gonna commit...A HOMICIDE
Spare us all the drama...YOU SHOULD TRY SUICIDE!

Hey there killa, where ya been?
Plottin out murder on the perfect 10.
Wanna make it scary on her I assume.
Break in her house and hang yourself in her bedroom.
Hey there killa, your unstoppable.
Outta control, and yo, shes irristable.
Go to her job and drink some gasoline.
Swallow a match and show her jus what she means to ya.

Before you go and commit...A HOMICIDE
Do us all a favor...YOU SHOULD TRY SUICIDE
If your gonna commit...A HOMICIDE
Spare us all the drama...YOU SHOULD TRY SUICIDE!

Suicide.......

Before you go and commit...A HOMICIDE
Do us all a favor...YOU SHOULD TRY SUICIDE
If your gonna commit...A HOMICIDE
Spare us all the drama...YOU SHOULD TRY SUICIDE!

Before you go and commit...A HOMICIDE
Do us all a favor...YOU SHOULD TRY SUICIDE
If your gonna commit...A HOMICIDE
Spare us all the drama...YOU SHOULD TRY SUICIDE!

Before you go and commit...A HOMICIDE
Do us all a favor...YOU SHOULD TRY SUICIDE
If your gonna commit...A HOMICIDE
Spare us all the drama...YOU SHOULD TRY SUICIDE!
Comments